1994


Transposer


             [Chords used] 
    A   Bm  D   Bsus4
e|--5---7---9----7--|
G|--6---7---9----7--|
D|--7---9---11---9--|
A|--7---9---11---9--|
E|--5---7---9----7--|

[Intro]
e|---------------------------------------|
B|-----2---------2---------2--------2----|
G|---2---2-----2---2-----2---2----2---2--|
D|---------------------0-----------------|
A|-0----------------------------2--------|
E|-----------2---------------------------| (2x)

A  Bm  Dmaj Bm (2x)

[Verse 1]
A       Bm    D        Bm
Haven't had a thing to eat
              A       Bm      D  Bm
It's feels so great To want for nothing
A          Bm  D    Bm
I haven't even been away
      A       Bm         Bsus4
For a day, it feels like something

[Chorus]
A       Bm    D     Bm
OoooOOOOoooohhhhh       (4x)

[Verse 2]
A       Bm         D        Bm  A
Haven't seen your face since 1994
   Bm       D  Bm
It feels like nothing
A       Bm    D        Bm
These days it pays to be 
   A       Bm           Bsus4
so strange And I'm like nothing

[Chorus]
A       Bm    D  Bm
OoooOOOOoooohhhhh   (4x)
            

* All the chords provided on here are the property of the respective artist, authors and labels, they are intended strictly for educational purposes,read,view and private study. All the contents are extracted from the internet and we are not getting any responsibility for the content.