A Little Faster


Transposer


             Intro:    F       G#  Eb  Bb       C#
       e|-----------------------------------|
       B|-----------------------------------|
       G|-------------888----------66666666-| X2
       D|-333-xxx-666-888-888-xxxx-66666666-|
       A|-333-xxx-666-666-888-xxxx-44444444-|
       E|-111-xxx-444-----666-xxxx----------|

Verse:    F  G# Eb Bb F              G#       Eb
       e|-------------------------------------------|
       B|-------------------------------------------|
       G|-------8-6---------------------------88888-|
       D|-3~-6~-8-6-3333333333333333-66666666-88888-|
       A|-3~-6~-6-4-3333333333333333-66666666-66666-|
       E|-1~-4~-----1111111111111111-44444444-------|

          You keep calling it a crash and burn, just wait your turn. You might have time to speak.

          There barely was a lesson learned, cause it'll return no favors back to me.

Pre-Chorus:    C#          Eb          C#          Eb
            e|---------------------------------------------|
            B|---------------------------------------------|
            G|-66-66-66-66-88-88-88-88-66-66-66-66-88-8888-|
            D|-66-66-66-66-88-88-88-88-66-66-66-66-88-8888-|
            A|-44-44-44-44-66-66-66-66-44-44-44-44-66-6666-|
            E|---------------------------------------------|

               I'm sure it tasted oh so sweet, but it was never good enough for me

               I bit the tongue behind my teeth, yet it was never good enough for me.
 
Chorus:    F       G#  Eb  Bb       C#
        e|-----------------------------------|
        B|-----------------------------------|
        G|-------------888----------66666666-| X2
        D|-333-xxx-666-888-888-xxxx-66666666-|
        A|-333-xxx-666-666-888-xxxx-44444444-|
        E|-111-xxx-444-----666-xxxx----------|
       
           You say you'll always keep your word, show me what you're after.

           I thought you'd promise me the world, tell me what you're after.

           F        G#      Bb    C C# F        G#  Eb  B        C# Eb F
        e|----------------------------------------------------------------|
        B|----------------------------------------------------------------|
        G|------------------33333-5-6~--------------888----------6~-8~----|
        D|-33333333-6666666-33333-5-6~-333-xxxx-666-888-888-xxxx-6~-8~-3~-|
        A|-33333333-6666666-11111-3-4~-333-xxxx-666-666-888-xxxx-4~-6~-3~-|
        E|-11111111-4444444------------111-xxxx-444-----666-xxxx-------1~-|

               Go on and take it way too far, cause here we are, waiting once again.

               You say you always keep your word, show me what you're after just a little faster.
 
Verse:       F  G# Eb Bb F              G#       Eb
       e|-------------------------------------------|
       B|-------------------------------------------|
       G|-------8-6---------------------------88888-|
       D|-3~-6~-8-6-3333333333333333-66666666-88888-|
       A|-3~-6~-6-4-3333333333333333-66666666-66666-|
       E|-1~-4~-----1111111111111111-44444444-------| 

          Am I the only eyes that see so subtly, this cut and dry routine?

          Even when you're by my side, I still need time to feel the company.

Pre-Chorus:    C#          Eb          C#          Eb
            e|---------------------------------------------|
            B|---------------------------------------------|
            G|-66-66-66-66-88-88-88-88-66-66-66-66-88-8888-|
            D|-66-66-66-66-88-88-88-88-66-66-66-66-88-8888-|
            A|-44-44-44-44-66-66-66-66-44-44-44-44-66-6666-|
            E|---------------------------------------------|

               I'm sure it tasted oh so sweet, but it was never good enough for me

               I bit the tongue behind my teeth, yet it was never good enough for me.
 
Chorus:    F       G#  Eb  Bb       C#
        e|-----------------------------------|
        B|-----------------------------------|
        G|-------------888----------66666666-| X2
        D|-333-xxx-666-888-888-xxxx-66666666-|
        A|-333-xxx-666-666-888-xxxx-44444444-|
        E|-111-xxx-444-----666-xxxx----------|
       
           You say you'll always keep your word, show me what you're after.

           I thought you'd promise me the world, tell me what you're after.

           F        G#      Bb    C C# F        G#  Eb  B        C# Eb F
        e|----------------------------------------------------------------|
        B|----------------------------------------------------------------|
        G|------------------33333-5-6~--------------888----------6~-8~----|
        D|-33333333-6666666-33333-5-6~-333-xxxx-666-888-888-xxxx-6~-8~-3~-|
        A|-33333333-6666666-11111-3-4~-333-xxxx-666-666-888-xxxx-4~-6~-3~-|
        E|-11111111-4444444------------111-xxxx-444-----666-xxxx-------1~-|

               Go on and take it way too far, cause here we are, waiting once again.

               You say you always keep your word, show me what you're after just a little faster.
 
Bridge:    Eb              F                 C#              G#      Eb
        e|-------------------------------------------------------------------|
        B|-------------------------------------------------------------------|
        G|-8-8-8-8-8-8-8-8-------------------6-6-6-6-6-6-6-6---------8-8-8-8-|
        D|-8-8-8-8-8-8-8-8-3-3-3-3-3-3-3-3-3-6-6-6-6-6-6-6-6-6-6-6-6-8-8-8-8-|
        A|-6-6-6-6-6-6-6-6-3-3-3-3-3-3-3-3-3-4-4-4-4-4-4-4-4-6-6-6-6-6-6-6-6-|
        E|-----------------1-1-1-1-1-1-1-1-1-----------------4-4-4-4---------|

           Hold your breath, now, the bad was wearing thin

           From the pavements settles in when we learn too much tooo soooooon

           Eb              F                 C#              G#       Eb
        e|---------------------------------------------------------------------|
        B|---------------------------------------------------------------------|
        G|-8-8-8-8-8-8-8-8-------------------6-6-6-6-6-6-6-6----------88888888-|
        D|-8-8-8-8-8-8-8-8-3-3-3-3-3-3-3-3-3-6-6-6-6-6-6-6-6-66666666-88888888-|
        A|-6-6-6-6-6-6-6-6-3-3-3-3-3-3-3-3-3-4-4-4-4-4-4-4-4-66666666-66666666-|
        E|-----------------1-1-1-1-1-1-1-1-1-----------------44444444----------|
           
           Hold your breath, now, the bad was wearing thin

           From the pavements settles in when we learn too much too soon (too soon) 

Chorus:    F       G#  Eb  Bb       C#
        e|-----------------------------------|
        B|-----------------------------------|
        G|-------------888----------66666666-| X2
        D|-333-xxx-666-888-888-xxxx-66666666-|
        A|-333-xxx-666-666-888-xxxx-44444444-|
        E|-111-xxx-444-----666-xxxx----------|
       
           You say you'll always keep your word, show me what you're after.

           I thought you'd promise me the world, tell me what you're after.

           F        G#      Bb    C C# F        G#  Eb  B        C# Eb
        e|-----------------------------------------------------------|
        B|-----------------------------------------------------------|
        G|------------------33333-5-6~--------------888----------6-8-|
        D|-33333333-6666666-33333-5-6~-333-xxxx-666-888-888-xxxx-6-8-|
        A|-33333333-6666666-11111-3-4~-333-xxxx-666-666-888-xxxx-4-6-|
        E|-11111111-4444444------------111-xxxx-444-----666-xxxx-----|

               Go on and take it way too far, cause here we are, waiting once again.

               You say you always keep your word, show me what you're after just a little faster.

Outro:    F       G#  Eb  Bb       C#
       e|-----------------------------------|
       B|-----------------------------------|
       G|-------------888----------66666666-|
       D|-333-xxx-666-888-888-xxxx-66666666-|
       A|-333-xxx-666-666-888-xxxx-44444444-|
       E|-111-xxx-444-----666-xxxx----------|
                   
                              It was never good enough for me

          F       G#  Eb  Bb       C# Eb F
       e|--------------------------------|
       B|--------------------------------|
       G|-------------888----------6-8---| 
       D|-333-xxx-666-888-888-xxxx-6-8-3-|
       A|-333-xxx-666-666-888-xxxx-4-6-3-|
       E|-111-xxx-444-----666-xxxx-----1-|

          (it was never good enough for me) Show me what you're after just a little faster.
            

* All the chords provided on here are the property of the respective artist, authors and labels, they are intended strictly for educational purposes,read,view and private study. All the contents are extracted from the internet and we are not getting any responsibility for the content.