A Winters Tale


Transposer


             [Verse]
            F#  F#/G#  F#/A#
It's Winter-fall 
                D#m     C#
Red skies are gleaming, oh 
G#m
Sea-gulls are flyin' over 
Eb/G
Swans are floatin' by 
B/F#
Smoking chimney-tops 
       F#m
Am I dreaming 
       A        C#7
Am I dreaming? 

The nights draw in 

There's a silky moon up in the sky, yeah 

Children are fantasizing 

Grown-ups are standin' by 

What a super feeling 
       A
Am I dreaming 
       B
Am I dreaming? 

woh woh woh woh 


   E
(dreaming) So quiet and peaceful 
   C#m7
(dreaming) Tranquil and blissful 
   B/D#
(dreaming) There's a kind of magic in the air 
   F#
(dreaming) What a truly magnificient view 
   F#/A#
(dreaming) A breathtaking scene 
           B/D#                      B/C#
With the dreams of the world in the palm of your hand !


[Solo]

e|----------------------2/14\2-----pb16-br14\2--13-14-11\2------pb18-br16----|
B|---------------------------------------------------------------------------|
G|---------------------------------------------------------------------------|
D|---------------------------------------------------------------------------|
A|---------------------------------------------------------------------------|
E|---------------------------------------------------------------------------|

"In the palm of your hand!"

e|-18--19-19b21----19-18-19-16-18----16---------------------------------16---|
B|--------------------------------19----16--------16-19-19-----16-17-19----16|
G|---------------------------------------------16----------18----------------|
D|------------------------------------------16-------------------------------|
A|---------------------------------------------------------------------------|
E|---------------------------------------------------------------------------|

e|---------19----21----pb23-17-pb23b24------|
B|------16----17----19----------------------|
G|-----16-----------------------------------|
D|----16------------------------------------|
A|------------------------------------------|
E|------------------------------------------|


(dreaming) A cosy fireside chat 

(dreaming) A little this, a little that 

(dreaming) Sound of merry laughter skippin' by 

(dreaming) Gentle rain beatin' on my face 

e|---------------21-18-------|
B|---------------------19----|
G|------------------------19-|
D|---------------------------|
A|---------------------------|
E|---------------------------|

"beating on my face"

(dreaming) What an extraordinary place! 

          B/D#                     A/C#        E7          Eb7
And the dream of the child is the hope of the hope of the man 
               Ab     Ab/Bb  Ab/C
It's all so beautiful 
                  Fm                 Eb
Like a landscape painting in the sky,   yeah 
Bbm                        
Mountains are zooming higher, mmm 
F/A
Little girls scream and cry 
Db/Ab
My world is spinning and spinning and spinning 
Abm
It's unbelievable 

e|-4-----------pb21-br19\2-|
B|-4-----------------------|
G|-4-----------------------|
D|-6-----------------------|
A|-6-----------------------|
E|-4-----------------------|
  "It's unbelievable"

         B
Sends me reeling 

e|-1-------16-14------------------------|
B|-3-------------14h16------------------|
G|-3--------------------16h18-----------|
D|-3--------------------------16h18-----|
A|-1-------------------------------16h18|
E|--------------------------------------|
  "reeling"

 G#m
Am I dreaming 
       B
Am I dreaming 
Bm/D            F#
Oooh it's bliss 


******************************

| b   Bend
| br  Bend release
| pb  Pre-bend
| /   Slide up
| \   Slide down
| h   Hammer-on

******************************
            

* All the chords provided on here are the property of the respective artist, authors and labels, they are intended strictly for educational purposes,read,view and private study. All the contents are extracted from the internet and we are not getting any responsibility for the content.