Act Like You Love Me


Transposer


             -------------------------------------------------------------------------------
                             ACT LIKE YOU LOVE ME - SHAWN MENDES
-------------------------------------------------------------------------------

It's a tab, sorry for calling it chords, but it wouldn't show up when you searched the song name so I
thought this would fix it...? I'm not sure haha

Hope it's accurate though! If you hear anything or see anything wrong, please tell me :)
    

 Tuning: Standard
 Capo: 1, 2, or 3

Chords: dudu dudud dudu dudud (I think...? That's how I strum for the chorus at least.)
            Em7     D    Cadd9    G
        e||--3--||--2--||--3--||--3--||
        B||--3--||--3--||--3--||--3--||
        G||--0--||--2--||--0--||--0--||
        D||--2--||--0--||--2--||--0--||
        A||--2--||--0--||--3--||--2--||
        E||--x--||--x--||--0--||--3--||


(LIVE) Intro: (When you see the asterisks "*", pluck the string lightly... and sorry if this is wrong..) 
    Em7 D     Cadd99
e|--3-3-2-0h3r-----------------------|
B|--3---3-----3~---------------------|
G|------2------------------0*--------|
D|--2-----------------0h2------------|
A|--2-----------------3--------3*~r--|
E|-----------------------------------| x2


OR...

  
(RECORDING) Intro: (Which is probably wrong too, sorry...) 
    Em7 D          Cadd9        Em7 D   Cadd9 G
e|--3-3-2-0h3r----------------|--3-3-2-0h3r-------------|
B|--3---3-----3~--------------|--3---3-----3~-----------|
G|------2-------------0-------|------2------------------|
D|--2------------0h2r-2-0h2~r-|--2------------0h2r-2----|
A|--2-----------------3-0h2r--|--2-----------------3-2--|
E|----------------------------|----------------------3--|


OR.......


(MY VERSION) Intro: (The simplified one)
    Em7 D     Cadd99         Em7 D   Cadd9      G
e|--3-3-2-0h3--------3-3--|--3-3-2-0h3--------3-3--|
B|--3---3-----3~-----3-3--|--3---3-----3~-----3-3--|
G|------2-----------------|------2-----------------|       
D|--2------------0h2-2-2--|--2------------0h2-2----|
A|--2----------------3-3--|--2----------------3-2--|
E|------------------------|---------------------3--|


Verse 1: (You can pluck or strum, up to you)
Em7 D                    Cadd9 
    So you leave tomorrow   just sleep the night
Em7 D             Cadd9  
    I promise I'll   make things right
Em7 D                      Cadd9
    I'll make you breakfast   the way you like 
Em7  D                      Cadd9
   Before you leave tomorrow   just let me try
Em7  D                      Cadd9                 G   
   Before you leave tomorrow   before you say goodbye 
Em7  D                      Cadd9
   Before you leave tomorrow   before you leave tomorrow


[Chorus]
Em7      D             Cadd9       G
Stay here and lay here right in my arms
     Em7 D         Cadd9         G
It's only a moment before you're gone
    Em7 D    Cadd9       G
And I     am keeping you warm
     Em7     D                Cadd9    G
Just act like you love me, so I can go on 
    Em7     D                Cadd9    G
And act like you love me, so I can go on


[Verse 2]
Em7 D                  Cadd9 G
     Just one more night      lyin' in your bed 
Em7       D                   Cadd9 G
   Whether it's wrong or right       just gotta make sense of it
Em7    D                            Cadd9 G
   And you'll be gone in the morning       and you'll be over this
Em7 D                  Cadd9 G
    Just one more night       So I can forget


[Chorus]

Em7      D             Cadd9       G
Stay here and lay here right in my arms
     Em7 D         Cadd9         G
It's only a moment before you're gone
    Em7 D    Cadd9       G
And I     am keeping you warm
     Em7     D                Cadd9    G
Just act like you love me, so I can go on 


[Bridge]
Em7           D                     
When you go, I can't watch you leave
Cadd9                              G
Just promise me you won't sneak out when I'm asleep
Em7                 D  
And when you go, and your mind is full
Cadd9                          G
I wake up wishing everything is just a dream

Em7      D             Cadd9       G
Stay here and lay here right in my arms
     Em7 D         Cadd9         G
It's only a moment before you're gone
    Em7 D    Cadd9       G
And I     am keeping you warm
     Em7     D                Cadd9    G
Just act like you love me, so I can go on 


[Chorus]
Em7      D             Cadd9       G
Stay here and lay here right in my arms
     Em7 D         Cadd9         G
It's only a moment before you're gone
    Em7 D    Cadd9       G
And I     am keeping you warm
     Em7     D                Cadd9    G
Just act like you love me, so I can go on 
    Em7     D                Cadd9    G  ~J.L.~
And act like you love me, so I can go on
     Em7     D                Cadd9    G
Just act like you love me, so I can go on...                                      

Thanks for using my tab! Check out my other Shawn Mendes tabs too :D Don't forget to rate and comments,thanks!
            

* All the chords provided on here are the property of the respective artist, authors and labels, they are intended strictly for educational purposes,read,view and private study. All the contents are extracted from the internet and we are not getting any responsibility for the content.