Ahora Toca Imaginar


Transposer


             e|--------------------------------------------------------------
B|--5-7-7-5-5----5-5-7-7-5-5-----5-7-7-5-5----5-5s4-4s2---------
G|-----------------------------4------------------------6s4-4---
D|--------------------------------------------------------------
A|--------------------------------------------------------------
E|--------------------------------------------------------------

e|--------------------------------------------------------------
B|--5-7-7-5-5-----5-7-7-5-5-----5-7-7-5-5-----5s4-4s2-----------
G|--------------4-------------4-----------------------4---------
D|--------------------------------------------------------------
A|--------------------------------------------------------------
E|--------------------------------------------------------------

E      B         C#m      A
Sé que eres especial, lo veo en tus ojos
E   B            C#m     A
Tu a mi me haces pensar, de otro modo
E   B       C#m     A
Solo verte sonreír, me vuelvo loco


E                     B                    C#m
    Y ahora toca imaginar, que pudo ser de verdad
                     A
Pero yo despierto, y eran sueños
E                   B                     C#m
    Y a patadas romperé, todo lo que quede de él
                 A
Para no volver a verlo...
E                      B                     C#m
    Seguiré pensando en ti, aunque no te tenga aquí
                A
Echaré de menos esos besos....


E     B            C#m      A
Siento miedo al despertar, sin ti algún día
E    B       C#m     A
Tu me dejarás soñar, me das la vida
E    B      C#m     A
Solo verte sonreír, me vuelvo loco


E                     B                    C#m
    Y ahora toca imaginar, que pudo ser de verdad
                     A
Pero yo despierto, y eran sueños
E                   B                     C#m
    Y a patadas romperé, todo lo que quede de él
                 A
Para no volver a verlo...
E                      B                     C#m
    Seguiré pensando en ti, aunque no te tenga aquí
                A
Echaré de menos esos besos....

--------------------------------------------------------

    E           B           C#m          A
e|--------------------------------------------------------------
B|------9-7------------7-9---------9-7-------------------7-9----
G|----------9--------9-----------------9-------9s8-8s6-9--------
D|--------------------------------------------------------------
A|--------------------------------------------------------------
E|--------------------------------------------------------------

E                     B                    C#m
    Y ahora toca imaginar, que pudo ser de verdad
                     A
Pero yo despierto, y eran sueños
E                   B                     C#m
    Y a patadas romperé, todo lo que quede de él
                 A
Para no volver a verlo...
E                      B                     C#m
    Seguiré pensando en ti, aunque no te tenga aquí
                A
Echaré de menos esos besos....


   E                    B      C#m       A
      Y ahora toca imaginar........................
   E               B        C#m          A
     Y a patadas romperé..........................
e|---------------------------------------------------------------------
B|---------5-7-7-5-5-----5-7-7-5-5-----5-7-7-5-5-----10s9-9s7-7s5-5----
G|---------------------4-------------4---------------------------------
D|---------------------------------------------------------------------
A|---------------------------------------------------------------------
E|---------------------------------------------------------------------

e|--------------------------------------------------------------
B|--5-7-7-5-5-----5-7-7-5-5-----5-7-7-5-5-----10s9-9s7-7s5-5~---
G|--------------4-------------4---------------------------------
D|--------------------------------------------------------------
A|--------------------------------------------------------------
E|--------------------------------------------------------------

Ah..........ah.......ah........
Ah..........ah.......ah.........
e|--------------------------------------------------------------
B|--5-7-7-5-5-----5-7-7-5-5-----5-7-7-5-5-----5s4-4s2-----------
G|--------------4-------------4-----------------------4---------
D|--------------------------------------------------------------
A|--------------------------------------------------------------
E|--------------------------------------------------------------
            

* All the chords provided on here are the property of the respective artist, authors and labels, they are intended strictly for educational purposes,read,view and private study. All the contents are extracted from the internet and we are not getting any responsibility for the content.