Aint No Sunshine


Transposer


             [Intro]

     Am        Em   G        Bm
E|------0-------------------0-------------------------|
B|------1-------------------1/3--3-3-3-3-3-3-3--------|
G|----2---------0---0-----2--/4--4-4-4-4-4-4-4--------|
D|---2---------2---0-----2-------4-4-4-4-4-4-4--------|
A|-0----------2---2----0------------------------------|
E|-----------0---3------------------------------------|

     Am        Em   G        Am
E|------0-------------------0-------------------------|
B|------1-------------------1----1-1-1-1-1-1-1--------|
G|----2---------0---0-----2------2-2-2-2-2-2-2--------|
D|---2---------2---0-----2-------2-2-2-2-2-2-2--------|
A|-0----------2---2----0------------------------------|
E|-----------0---3------------------------------------|


[Verse]
Am                            Am Em G
Ain't no sunshine when she's gone
Am                           Am Em G
It's not warm when she's away
Am                            Em
Ain't no sunshine when she's gone
                         Dm                      Am Em G
And she's always gone too long anytime she goes away
Am                       Am    Em G
Wonder this time where she's gone
Am                         Am Em G
Wonder if she's gone to stay
Am                            Em
Ain't no sunshine when she's gone
                              Dm                    Am Em G Am
And this house just ain't no home anytime she goes away


[Bridge]
N.C.
And I know, I know, I know
N.C.
I know, I know, I know, I know
N.C.
I know, I know, I know, I know
N.C.
I know, I know, I know, I knoooow
N.C.
Hey, I ought to leave the young thing alone
                                 Am Em G
But ain't no sunshine when she's gone


[Verse]
Am                              Am Em G
Ain't no sunshine when she's gone
Am                  Am Em G
Only darkness everyday
Am                              Em
Ain't no sunshine when she's gone
                         Dm                      Am Em G
And she's always gone too long anytime she goes away
                  Am Em G
Anytime she goes away
Am                            Am  Em G
Ain't no sunshine when she's gone
Am                           Am Em G
It's not warm when she's away
Am                            Em
Ain't no sunshine when she's gone
                              Dm                    Am Em G Am
And this house just ain't no home anytime she goes away


[Outro]
Am Em G Am
Am Em G Am
Em Dm
Am Em G Am
            

* All the chords provided on here are the property of the respective artist, authors and labels, they are intended strictly for educational purposes,read,view and private study. All the contents are extracted from the internet and we are not getting any responsibility for the content.