Air


Transposer


             [Verse]

E|-------------0----------------0----------------0-------|
B|--------1----------------1----------------1------------|
G|---2----------------0----------------2-----------------| x8
D|-------------------------------------------------------|
A|-------------------------------------------------------|
E|-------------------------------------------------------|


[Chorus]

  Am                      D
  You, you don't mean no harm
                          F                                   C
  But you’re stringing me along and  I don't have the time to spare
      Am                    D
  And I, I’m trying hard to breath
                         F
  But you’re suffocating me
                              C
 This time I’m coming up for air

E|-------------0----------------0----------------0-------|
B|--------1----------------1----------------1------------|
G|---2----------------0----------------2-----------------| x2
D|-------------------------------------------------------|
A|-------------------------------------------------------|
E|-------------------------------------------------------|


[Verse]

E|-------------0----------------0----------------0-------|
B|--------1----------------1----------------1------------|
G|---2----------------0----------------2-----------------| x8
D|-------------------------------------------------------|
A|-------------------------------------------------------|
E|-------------------------------------------------------|


[Chorus]

  Am                      D
  You, you don't mean no harm

                          F                                  C
  But you’re stringing me along and I don't have the time to spare

      Am                    D
  And I, I’m trying hard to breath

                         F
  But you’re suffocating me

                     C
  I’m coming up for air


[Bridge]

Trying to hold me down….
E|------------------------------------------------------------|
B|--------1-----------------1-----------------1---------------|
G|-----2-----------------2-----------------0------------------|
D|--2-----------------2-----------------2---------------------|
A|------------------------------------------------------------|
E|------------------------------------------------------------|


[Chorus] x2

  Am                      D
  You, you don't mean no harm
                          F                                    C
  But you’re stringing me along and  I don't have the time to spare
  Am                          D
  And I, I’m trying hard to breath
                         F
  But you’re suffocating me
                              C
  This time I’m coming up for air
            

* All the chords provided on here are the property of the respective artist, authors and labels, they are intended strictly for educational purposes,read,view and private study. All the contents are extracted from the internet and we are not getting any responsibility for the content.