Air


Transposer


             This is my firs tab, I think it sounds really similar to the Shawn's original. in the tab part, you have to 
play the pattern once per text line, then it makes sense. 

Air - Shawn Mendes

No capo

C:(032010)
D7: (054555)
F: (133211)
Fm: (133111)



E|--------0----------------------|
B|-----1------------1---------1--|
G|--2------------2---------2-----|      x8
D|------------2---------3--------|
A|-------------------------------|
E|-------------------------------|

    Never thought that we would end up here,
    Should've known it from the start
    I know you mean it when you say you love me,
    But we're trying way too hard

    Used to think that we would last forever,
    How could I've been so wrong
    Never thought I'd be the one to say this,
    What if our time has come and gone?

C                          D7
You, you don't mean no harm
                        F               Fm                  C
But you're stringin' me along and I don't have the time to spare
                              D7       
And I, I'm trying hard to breathe
                        F               Fm             C
But you're suffocating me, this time I'm coming up for air

E|--------0----------------------|
B|-----1------------1---------1--|
G|--2------------2---------2-----|      x2 
D|------------2---------3--------|
A|-------------------------------|
E|-------------------------------|

    Air x6
    Air x9 (faster)

E|--------0----------------------|
B|-----1------------1---------1--|
G|--2------------2---------2-----|      x8 
D|------------2---------3--------|
A|-------------------------------|
E|-------------------------------|

    Always tryna put your two sense in
    Then expecting me to change
    Tried to fix me up but I'm not broken,
    All you do is leave me stained
 
    Told you not to tie me down too quickly,
    Take it slow it's not a race
    And you keep on tryna reel me in but,
    All I really need is space

C                          D7
You, you don't mean no harm
                        F               Fm                  C
But you're stringin' me along and I don't have the time to spare
                              D7       
And I, I'm trying hard to breathe
                        F               Fm             C
But you're suffocating me, this time I'm coming up for air

E|--------0----------------------|
B|-----1------------1---------1--|
G|--2------------2---------2-----|      x2 
D|------------2---------3--------|
A|-------------------------------|
E|-------------------------------|

    Air x6
    Air x9 (faster)

E|--------0----------------------|
B|-----1------------1---------1--|
G|--2------------2---------2-----|      x2 
D|------------2---------3--------|
A|-------------------------------|
E|-------------------------------|

     Air x6
     Air x9 (faster)

E|--------0----------------------|
B|-----1------------1---------1--|
G|--2------------2---------2-----|      x4 
D|------------2---------3--------|
A|-------------------------------|
E|-------------------------------|

    Trying to hold me down
    But I'm surfacing
    It's hard to let you go,
    But I gotta leave

C                          D7
You, you don't mean no harm
                        F               Fm                  C
But you're stringin' me along and I don't have the time to spare
                              D7       
And I, I'm trying hard to breathe
                        F               Fm             C
But you're suffocating me, this time I'm coming up for air

C                          D7
You, you don't mean no harm
                        F               Fm                  C
But you're stringin' me along and I don't have the time to spare
                              D79       
And I, I'm trying hard to breathe
                        F               Fm             C
But you're suffocating me, this time I'm coming up for air


E|--------0----------------------|
B|-----1------------1---------1--|
G|--2------------2---------2-----|      x2 
D|------------2---------3--------|
A|-------------------------------|
E|-------------------------------|

    Air x6
    Air x9 (faster)

E|--------0----------------------|
B|-----1------------1---------1--|
G|--2------------2---------2-----|      x2 
D|------------2---------3--------|
A|-------------------------------|
E|-------------------------------|

    Air x6
    Air x9 (faster)
            

* All the chords provided on here are the property of the respective artist, authors and labels, they are intended strictly for educational purposes,read,view and private study. All the contents are extracted from the internet and we are not getting any responsibility for the content.