Air


Transposer


             [Verse]

E|--------0------------------------|   
B|-----1-----------1---------1-----|    
G|--2-----------0---------0--------|    
D|-----------2---------3-----------|    x 8
A|---------------------------------|    
E|---------------------------------|  


Never thought that we would end up here,

Should've known it from the start

I know you mean it when you say you love me,

But we're trying way too hard


Used to think that we would last forever,

How could I've been so wrong

Never thought I'd be the one to say this,

What if our time has come and gone?


[Chorus]

 C                      D
You, you don't mean no harm

                          F                Fm               C
But you're stringin' me along and I don't have the time to spare

 C                           D
And I, I'm trying hard to breathe

                       F             Fm                C
But you're suffocating me, this time I'm coming up for air


E|--------0------------------------|   
B|-----1-----------1---------1-----|    
G|--2-----------0---------0--------|    
D|-----------2---------3-----------|    x 2
A|---------------------------------|    
E|---------------------------------| 


Air, Air, Air, Air, Air, Air
A-A-A Air, Air, Air ,Air


[Verse]

E|--------0------------------------|   
B|-----1-----------1---------1-----|    
G|--2-----------0---------0--------|    
D|-----------2---------3-----------|    x 8
A|---------------------------------|    
E|---------------------------------|  


Always tryna put your two cents in

Then expecting me to change

Tried to fix me up but I'm not broken,

All you do is leave me stained


Told you not to tie me down too quickly,

Take it slow it's not a race

And you keep on tryna reel me in but,

All I really need is space


[Chorus]

 C                      D
You, you don't mean no harm

                          F                Fm               C
But you're stringin' me along and I don't have the time to spare

 C                           D
And I, I'm trying hard to breathe

                       F             Fm                C
But you're suffocating me, this time I'm coming up for air


E|--------0------------------------|   
B|-----1-----------1---------1-----|    
G|--2-----------0---------0--------|    
D|-----------2---------3-----------|    x 4
A|---------------------------------|    
E|---------------------------------| 


Air, Air, Air, Air, Air, Air
A-A-A Air, Air, Air ,Air

Air, Air, Air, Air, Air, Air
A-A-A Air, Air, Air ,Air


[Bridge]

E|--------0------------------------|   
B|-----1-----------1---------1-----|    
G|--2-----------0---------0--------|    
D|-----------2---------3-----------|    x 4
A|---------------------------------|    
E|---------------------------------| 


Trying to hold me down

But I'm surfacing

It's hard to let you go,

But I gotta leave


[Chorus]

 C                      D
You, you don't mean no harm

                          F                Fm               C
But you're stringin' me along and I don't have the time to spare

 C                           D
And I, I'm trying hard to breathe

                       F             Fm                C
But you're suffocating me, this time I'm coming up for air


 C                      D
You, you don't mean no harm

                          F                Fm               C
But you're stringin' me along and I don't have the time to spare

 C                           D
And I, I'm trying hard to breathe

                       F             Fm                C
But you're suffocating me, this time I'm coming up for air


E|--------0------------------------|   
B|-----1-----------1---------1-----|    
G|--2-----------0---------0--------|    
D|-----------2---------3-----------|     x 3
A|---------------------------------|    
E|---------------------------------| 


Air, Air, Air, Air, Air, Air
A-A-A Air, Air, Air ,Air

Air, Air, Air, Air, Air, Air
A-A-A Air, Air, Air ,Air
            

* All the chords provided on here are the property of the respective artist, authors and labels, they are intended strictly for educational purposes,read,view and private study. All the contents are extracted from the internet and we are not getting any responsibility for the content.