All I Want For Christmas Is You


Transposer


             Tabbed by Rocio

John Mayer's cover of "All I want for Christmas is you" by Mariah Carey. Feel free 
to comment, rate...


------Chords he plays------

G    3x543x / 3x0033
G7   3x545x
C    x3555x
Cm   8x888x / 1x12x3
A/Cm 5x554x
Am7  5x555x
B7   021200
E7   020100
Em7  022030


>>>>>>Let's go step by step<<<<<<


         G         C        Cm
e-----------------------------------------|
b--------3---------5--------8-------------|
g--------4---------5--------8-------------|
d--------5---------5--------8-------------|
a--------x---------3--------x-------------|
e--------3------------------8-------------|

I don't want a lot for Christmas
There's just one thing I need
I don't care about presents
Underneath the Christmas tree



         G        B7      Em7      Cm     G     E7
e-----------------------------------------------------|
b--------3--------0--------3-------8------3------0----|
g--------4--------2--------0-------8------4------1----|
d--------5--------1--------2-------8------5------0----|
a--------x--------2--------2-------x------x------2----|
e--------3-------------------------8------3------0----|

I just want you for my own
More than you could ever know
Make my wish come true...


        Am7       A/Cm    
e-------------------------------|
b--------5---------4------------|
g--------5---------5------------|
d--------5---------5------------|
a--------x---------x------------|
e--------5---------5------------|

All I want for Christmas
Is you...

>>>>>>Interlude 1<<<<<<

         G         G7       C
e------------------------------------|
b--------3---------5--------5--------|
g--------4---------4--------5--------|
d--------5---------5--------5--------|
a--------x---------x--------3--------|
e--------3---------3-----------------|

(This is very quickly): 

         D        C        B      A
e-------------------------------------|
b-------------------------------------|
g--------7--------5-------------------|
d--------7--------5--------9------7---|
a--------5--------3--------9------7---|
e--------------------------7------5---|


(The same)
I don't want a lot for Christmas
There is just one thing I need
I don't care about presents
Underneath the Christmas tree
I don't need to hang my stocking
There upon the fireplace
Santa Claus won't make me happy
With a toy on Christmas day

(It's nearly the same:)
         G        B7      Em7      Cm     G     E7
e----------------------------------3------3-----------|
b--------3--------0--------3-------x------3------0----|
g--------4--------2--------0-------2------0------1----|
d--------5--------1--------2-------1------0------0----|
a--------x--------2--------2-------x------x------2----|
e--------3-------------------------1------3------0----|

I just want you for my own
More than you could ever know
Make my wish come true
(The same)
All I want for Christmas is you...


>>>>>>Interlude 2<<<<<<<
         G         Em7      Am7    A/Cm
e----------------------------------------|
b--------3---------3--------5------4-----|
g--------4---------0--------5------5-----|
d--------5---------2--------5------5-----|
a--------x---------2--------x------x-----|
e--------3------------------5------5-----|



(The same as the last time:)
You baby
I won't ask for much this Christmas
I won't even wish for snow
I'm just gonna keep on waiting
Underneath the mistletoe
I won't make a list and send it
To the North Pole for Saint Nick
I won't even stay awake to
Hear those magic reindeer click
'Cause I just want you here tonight
Holding on to me so tight
What more can I do
Baby all I want for Christmas is you
You...

>>>>>>>>Bridge<<<<<<<<<

         B7       Em7   
e-------------------------------|
b--------0---------3------------|
g--------2---------0------------|
d--------1---------2------------|
a--------2---------2------------|
e-------------------------------|
All the lights are shining
So brightly everywhere
And the sound of children's
Laughter fills the air

      Cm        G         E7      Am7    A/Cm
e-----3-----------------------------------------|
b-----x---------3------------------5------4-----|
g-----2---------4---------1--------5------5-----|
d-----1---------5---------0--------5------5-----|
a-----x---------x---------2--------x------x-----|
e-----1---------3------------------5------5-----|
And everyone is singing
I hear those sleigh bells ringing
Santa won't you bring me the one I really need
Won't you please bring my baby back to me...



>>>>>Ok, so now let's play the whole song<<<<<<<<


G
I don't want a lot for Christmas

G
There's just one thing I need

C
I don't care about the presents

Cm
Underneath the Christmas tree

G                      B7
I just want you for my own

Em7                       Cm
More than you could ever know

G                 E7
Make my wish come true

Am7            A/Cm
All I want for Christmas is...

G
You

G7 C

D C B A



G
I don't want a lot for Christmas

G
There's just one thing I need

C
I don't care about the presents

Cm
Underneath the Christmas tree

G
I don't need to hang my stocking

G
There upon the fireplace

C
Santa Claus won't make me happy

Cm
With a toy on Christmas day





G                      B7
I just want you for my own

Em7                       Cm
More than you could ever know

G                 E7
Make my wish come true

Am7            A/Cm
All I want for Christmas is you

G  
You

Em7 Am7 A/Cm



G
I won't ask for much this Christmas


G
I don't even wish for snow

C
I'm just gonna keep on waiting

Cm
Underneath the mistletoe

G
I won't make a list and send it


G
To the North Pole for Saint Nick

C
I won't even stay awake to

Cm
Hear those magic reindeers click



G                             B7
'Cause I just want you here tonight

Em7                  Cm
Holding on to me so tight

G               E7
What more can I do

Am7                 A/Cm
Baby all I want for Christmas is 



G 
you

Em7 Am7 A/Cm





B7
All the lights are shining

   Em7
So brightly everywhere

B7
And the sound of children's

Em7
Laughter fills the air

Cm
And everyone is singing

G            E7
I hear those sleigh bells ringing

Am7
Santa won't you bring me the one I really need

          A/Cm
Won't you please bring my baby to me...





   G
Oh I don't want a lot for Christmas

G
This is all I'm asking for

C
I just want to see my baby

Cm
Standing right outside my door





G                         B7
Oh I just want you for my own

Em7                       Cm
More than you could ever know

G                 E7
Make my wish come true

     Am7            A/Cm      
Baby all I want for Christmas is...

G
You

Em7 Am7 A/Cm x3
            

* All the chords provided on here are the property of the respective artist, authors and labels, they are intended strictly for educational purposes,read,view and private study. All the contents are extracted from the internet and we are not getting any responsibility for the content.