Always A Winner


Transposer


             [Intro]

 Gm      Bb      F        F Gm F Gm
 / . . . / . . . / . . . / . . . /     X 6 times

[Riff]
e|-------------------|--------------------|
B|-------------------|--------------------|
G|-------------------|--------------------|
D|--------3--5---3---|--------------------|
A|--3--5-------------|-5--3-----3---------|
E|-------------------|-------6-----6---3--|

e|-------------------|--------------------|
B|-------------------|--------------------|
G|-------------------|--------------------|
D|--------3--5---3---|--------------------|
A|--3--5-------------|-5--3-----3---------|
E|-------------------|-------6-----6------|

[Verse]

 Gm          Bb
 Hey, see it my way
       F
 If we all had a dream
          F Gm     F Gm
 we could bust this place
              Gm
 And we could take it down
        Bb
 like a runaway train
                 F
 I bet you could make me smile
          F Gm  F Gm
 like I'm going insane

[Verse]
    Gm
 So pick your style
     Bb
 and pick your place
            F
 And we can burn like the summer
       F Gm   F Gm
 with amazing grace
       Gm
 Gonna win now,
          Bb
 'cause I know you are
            F
 You are my one true love
         F Gm       F Gm
 and you got me this far

[Chorus]

Gm Bb
    Always a winner
F              F Gm     F Gm
   yeah you're always a winner for me
Gm Bb
   Always a winner
F              F Gm     F Gm
   yeah you're always a winner for me

[Riff]
e|-------------------|--------------------|
B|-------------------|--------------------|
G|-------------------|--------------------|
D|--------3--5---3---|--------------------|
A|--3--5-------------|-5--3-----3---------|
E|-------------------|-------6-----6---3--|

e|-------------------|--------------------|
B|-------------------|--------------------|
G|-------------------|--------------------|
D|--------3--5---3---|--------------------|
A|--3--5-------------|-5--3-----3---------|
E|-------------------|-------6-----6------|

[Verse]
         Gm
 With my best friend
          Bb
 I put my best foot forward
        F
 Gonna dry you out
        F Gm        F Gm
 Like a winter time wind
        Gm
 And It won't stop now,
 Bb
 No I'll keep coming
        F
 Better knock me down sober
      F Gm      F Gm
 So I can't get up
 Gm                      Bb
 This time we'll see the last time
           F
 Oh you're always a winner,
           F Gm          Gm F
 Don't you burn yourself off

[Chorus]

Gm Bb
    Always a winner
F              F Gm     F Gm
    Yeah you're always a winner for me
Gm Bb
    Always a winner
F              F Gm     F Gm
    zyeah you're always a winner for me

[Riff]
e|-------------------|--------------------|
B|-------------------|--------------------|
G|-------------------|--------------------|
D|--------3--5---3---|--------------------|
A|--3--5-------------|-5--3-----3---------|
E|-------------------|-------6-----6---3--|
                                                X 2
e|-------------------|--------------------|
B|-------------------|--------------------|
G|-------------------|--------------------|
D|--------3--5---3---|--------------------|
A|--3--5-------------|-5--3-----3---------|
E|-------------------|-------6-----6------

[Solo]

Gm           Bb          F           F Gm   F Gm
/  .  .  .  /  .  .  .  /  .  .  .  /   .   .   .   /
Gm           Bb          F           F Gm   F Gm
/  .  .  .  /  .  .  .  /  .  .  .  /   .   .   .   /


[Bridge]
 Gm9              Bb6
 Pick me up, don't bring me down
 Fsus2
 Take me right now
        Gm9
 To the other side of town
                Gm9
 That's where I wanna be
         Bb6
 You and me alone
             Fsus2
 We've gotta build it right up
          F Gm         F Gm
 So we can make it our home

[Verse]
Gm
 Guilty man,
               Bb
 Don't want no guilty man scene
           F
 I'm gonna break it right now
          F Gm     F Gm
 You're a winner to me

[Chorus]

Gm Bb
    Always a winner
F              F Gm     F Gm
   Yeah you're always a winner for me
Gm Bb
   Always a winner
F              F Gm     F Gm
   Yeah you're always a winner for me

Gm Bb
    Always a winne
F              F Gm     F Gm
   Yeah you're always a winner for me
Gm Bb
   Always a winner
F              F Gm     F Gm
   Yeah you're always a winner for me

 Riff =>  x 2

[Riff]
e|-------------------|--------------------|
B|-------------------|--------------------|
G|-------------------|--------------------|
D|--------3--5---3---|--------------------|
A|--3--5-------------|-5--3-----3---------|
E|-------------------|-------6-----6---3--|     }
                                                } X 2
e|-------------------|--------------------|     }
B|-------------------|--------------------|
G|-------------------|--------------------|
D|--------3--5---3---|--------------------|
A|--3--5-------------|-5--3-----3---------|
E|-------------------|-------6-----6------|
            

* All the chords provided on here are the property of the respective artist, authors and labels, they are intended strictly for educational purposes,read,view and private study. All the contents are extracted from the internet and we are not getting any responsibility for the content.