Anda Borracho Pancho


Transposer


             Con la condición de que digan que la sacaron de atame y gracias 
a mi ahí va:          
 
                             Fm     A# 
             
E]----------------:-------------:--------
B]----------------:-------------:--------
G]-5--4--5--7-8-7-:-5--4-5--1-1-:-0-1-3--
D]----------------:-------------:--------
A]----------------:-------------:--------
E]----------------:-------------:--------

                  Cm G#                          G7
                         
E]-----------------:--------------:------------------
B]-------1-3-1-----:--------------:------------------
G]-3-1-3--------3-1:---5-4------5-:----------7--5--4-
D]-----------------:5-5-----7--5--:-6-6-6-6--8--6--5-
A]-----------------:--------------:-----------------
E]-----------------:--------------:----------------


E]---3h4p3------------------
B]-----------3h4p3----------
G]-------------------4-5----
D]--------------------------
A]--------------------------
E]--------------------------

Cm G7 Cm                         Fm

     Cargando una pena se encuentra el gimiendo 

  A#            Cm            C7

Y llorando por una mujer, el vicio es su aliado

           Fm              A#                Cm

Se pierde en el, y ya por el barrio se habla mal de el

      G#                 A#                       Cm G7

Que es un borracho un ave sin rumbo un tonto haragán

Cm      A#            Cm      A#               
Llorando como si fuera un niño el cual perdiera un 

Cm    G# 
juguete 
                    G7      Cm    A#        
De incalculable valor, tomando quisiera ahogar sus 

Cm        A#
problemas 

Cm          G#                 G7

Sufriendo por una ingrata mujer


             Cm   A#                     Cm  
 Anda borracho pancho por esas calles de dios

A#                     Cm      G#
 Caguama en mano por el barrio cantando canciones de 
     G7 
amor


               Cm    A#                  Cm

Anda borracho pancho porque su vieja lo dejó 

A#                    Cm   G#                        G7

Pistola en mano lo corrió y ahora se siente solitario

Cm Fm            A#             Cm

19 de noviembre pancho nunca lo olvidará San Juanico

     Fm           A#                Cm  
     
estaba en llamas y en su hogar explotaba el sexo

      Fm        A#              Cm 
    
su mujer lo engañaba con el arrendador de impuestos

           Fm             A#           Cm  

día y noche se burlaban se entregaban a su pasión

G#                      G7

se entregaban a su pasión

Cm           Fm            A#                        Cm

ese día de la explosión de madrugada llegó a su cantón

                Fm                  A#                 Cm  

y encontró que la quemazón era en su cama a todo color

          Fm          A#                    Cm

el armó mucho mitote pero su vieja lo controló

      Fm     A#                       Cm  
  
después pistola en mano al pobre pancho a la china mandó

G#                               G7

al pobre pancho a la china mandó

Pues esta es la rola y si quieres
Mas rolas solo pidelas: bostik,
Haragan, angeles, interpuesto,
Rockdrigo, luzbel, etc. 
Saludos a Anita, a Cristina, a Gabriela.
            

* All the chords provided on here are the property of the respective artist, authors and labels, they are intended strictly for educational purposes,read,view and private study. All the contents are extracted from the internet and we are not getting any responsibility for the content.