Angeles Educados


Transposer


             A5  D5  Db5  E5
e|------------------|
B|------------------|
G|-----7----6---9---|
D|-7---5----6---7---|
A|-7---5----4---7---|
E|-5----------------|

Intro  A5-D5-Db5-D5-E5 (x2)

A5                   D5  Db5   D5 E5  (x2)
Óleo sobre tela de una pasión lunar
A5                      D5  Db5   D5  E5  (x2)
Muestra los empastes de lo que suele pasar
A5       D5    Db5 D5 E5              A5
Cuando dejamos escapar los ángeles, demonios, que serán?

Inter  A-C-Bb-C

A5                 D5  Db5    D5   E5 (x2)
Estirar el arco dorado debajo del mar
A5                    D5  Db5 D5   E5   (x2)
Disparar tus flechas sin querer lastimar
        A5         D5   Db5 D5  E5
Es como? decirnos cosas sin pensar
   E5          A5            A5 C#5 E5
El filo de tu lengua pudo más

e|----------------------------------|
B|-11--11--11--13--10--10--10-------|
G|---10--10--10--10--10--10--10--10-|
D|-----------------------------12---|
A|----------------------------------|
E|----------------------------------|

Fueron tus ángeles educados los que me hicieron llorar

Fueron tus ángeles educados los que me hicieron pensar,
E5          F5
que todo estaba?

Inter A-C-Bb-C

A5                 D5  Db5    D5   E5
Olvidar las guerras pasadas en tiempos de paz
A5                 D5  Db5    D5   E5
Encontrar el templo robado y poder perdonar
A5      D5  Db5 D5   E5   A5              E5
Tal vez podamos controlar a los ángeles, demonios que
      A5 C#5 E5
serán?

e|----------------------------------|
B|-11--11--11--13--10--10--10-------|
G|---10--10--10--10--10--10--10--10-|
D|-----------------------------12---|
A|----------------------------------|
E|----------------------------------|


Fueron tus ángeles educados los que me hicieron llorar

Fueron tus ángeles educados los que me hicieron pensar

Inter 2  Dm - A - Dm - A - Dm - A - Bm - E

e|----------------------------------|
B|-11--11--11--13--10--10--10-------|
G|---10--10--10--10--10--10--10--10-|
D|-----------------------------12---|
A|----------------------------------|
E|----------------------------------|


Fueron tus ángeles educados los que me hicieron llorar

Fueron tus sueños desenfrenados los que me hicieron pensar
Bm             Dm
Me hicieron llorar?
            

* All the chords provided on here are the property of the respective artist, authors and labels, they are intended strictly for educational purposes,read,view and private study. All the contents are extracted from the internet and we are not getting any responsibility for the content.