Another First Kiss


Transposer


             I was going to submit these as corrections, but there were a few too many so I decided 
it would be better to just make a new one

[Intro]
A D A D

[Verse]
C    G               F       G
I'm asleep but she's talking to me
C              G             F          G
She's walking 'round wearing all of my clothes
C           Em      F         G
As she runs out of things to say
C            Em       F     G
And grabs my coat to walk away

[Chorus]
F          G        C        Em
How bout another first kiss, she said
F          G        C        Em
How bout another first kiss, I said
F         G     Am         D
I want another first kiss like this
F          G        C         E
How bout another first kiss.


[Bridge]

A                     D

---------12-9------------------14-9-------|
10-12-10------12-10---10-12-10------12-10-|
------------------------------------------|
------------------------------------------|
------------------------------------------|
------------------------------------------|

[Verse]
C     G               F    G
Other people were too sentimental
C      G          F         G
Always worrying about their hair
    C        Em      F   G
Got tired of wasting all my time
    C       Em    F     G
Now I'm not worrying at all


[Chorus]
F          G        C        Em
How bout another first kiss, she said
F          G        C        Em
How bout another first kiss, I said
F         G     Am          D
I want another first kiss like this
F          G        C         E
How bout another first kiss.


[Solo]

A                      D                      A                      E

---------12-9-------------------14-9-------------------12-9------------------------------|
10-12-10------12-10----10-12-10------12-10----10-12-10------12-10----10-9----9-10-9------|
--------------------------------------------------------------------------11--------11-9-|
-----------------------------------------------------------------------------------------|
-----------------------------------------------------------------------------------------|
-----------------------------------------------------------------------------------------|

A                      D                      A                      E

---------12-9-------------------14-9-------------------12-9----------------12------------12-|
10-12-10------12-10----10-12-10------12-10----10-12-10------12-10----10h12----10-9-10-12----|
--------------------------------------------------------------------------------------------|
--------------------------------------------------------------------------------------------|
--------------------------------------------------------------------------------------------|
--------------------------------------------------------------------------------------------|

[Verse]
C         G            F      G
You could tell me we belong together
C           G          F         G
And I could tell you belong with me
    C          Em     F        G
But we've run out of things to say
    C        Em    F   Fm
And well be happy anyway so

[Chorus]
F          G        C        Em
How bout another first kiss, she said
F          G        C        Em
How bout another first kiss, I said
F         G     Am         D
I want another first kiss like this
F          G        C         E
How bout another first kiss.

F          G        C        Em
How bout another first kiss, she said
F          G        C        Em
How bout another first kiss, I said
F         G     Am         D
I want another first kiss like this
F          G        C
How bout another first kiss.
            

* All the chords provided on here are the property of the respective artist, authors and labels, they are intended strictly for educational purposes,read,view and private study. All the contents are extracted from the internet and we are not getting any responsibility for the content.