Armies In The Fire


Transposer


             *Use the same intro-arpeggio in verses or just follow chords below:

        e|-3-|
        B|-3-|
        G|-3-|
Ebmaj7  D|-5-|
        A|-6-|
        E|-3-|

[Intro]
e|------3-----------3-----|------3-----------3-----|------3-----------3-----|------3-----------3-----||
B|----3---3-------3---3---|----3---3-------3---3---|----6---6-------6-----6-|----3---3-------3---3---||
G|--3-------3---3-------3-|--3-------3---3-------3-|--5-------5---5-----5---|--3-------3---3-------3-||
D|------------------------|1-----------1-----------|3-----------3-----------|------------------------||
A|------------------------|------------------------|------------------------|------------------------||
E|3-----------3-----------|------------------------|------------------------|3-----------3-----------||

[Verse]
    Gm
The lamps now glitter down the street;   
Ebmaj7
Faintly sound the falling feet;  
        F
And the blue even slowly falls  
          Gm 
About the garden trees and walls.        

Gm  
Now in the falling of the gloom
    Ebmaj7
The red fire paints the empty room:      
    F
And warmly on the roof it looks,
             Gm  
And flickers on the backs of books.

[Chorus]
    Eb
And what the burning city is
     Bb   
That crumbles in your furnaces!  
    Eb
And what the burning city is
     Bb          F       
That crumbles in your furnaces! 

e|------3-----------3-----|------3-----------------||
B|----3---3-------3---3---|----6---6---------------||
G|--3-------3---3-------3-|--5-------5-------------||
D|------------1-----------|3-----------3-----------||
A|------------------------|------------------------||
E|3-----------------------|--------------------6-5-||
 
[Instrumental]
e|------3-----------3-----|------3-----------3-----|------3-----------3-----|------3-----------3-----||
B|----3---3-------3---3---|----3---3-------3---3---|----6---6-------6-----6-|----3---3-------3---3---||
G|--3-------3---3-------3-|--3-------3---3-------3-|--5-------5---5-----5---|--3-------3---3-------3-||
D|------------------------|1-----------1-----------|3-----------3-----------|------------------------||
A|------------------------|------------------------|------------------------|------------------------||
E|3-----------3-----------|------------------------|------------------------|3-----------3-----------||

e|------3-----------3-----|------3-----------3-----|------3-----------3-----|------3-----------3-----||
B|----3---3-------3---3---|----3---3-------3---3---|----6---6-------6-----6-|----3---3-------3---3---||
G|--3-------3---3-------3-|--3-------3---3-------3-|--5-------5---5-----5---|--3-------3---3-------3-||
D|------------------------|1-----------1-----------|3-----------3-----------|------------------------||
A|------------------------|------------------------|------------------------|------------------------||
E|3-----------3-----------|------------------------|------------------------|3-----------3-----------||

e|------3-----------3-----|------6-----------6-----|------------------------|------6-----------6-----||
B|----3---3-------3---3---|------------------------|------8-----------8-----|------------------------||
G|--3-------3---3-------3-|----7---7-------7---7---|----8---8-------8---8---|----7---7-------7---7---||
D|1-----------1-----------|--8-------8---8-------8-|--8-------8---8-------8-|--8-------8---8-------8-||
A|------------------------|------------------------|6-----------6-----------|------------------------||
E|------------------------|6-----------6-----------|------------------------|6-----------6-----------||

e|------3-----5-----3-----|------3-----------3-----|------3-----------------||
B|----6---6-----6-----6---|----3---3-------3---3---|----6---6---------------||
G|--5-------5-----5-----5-|--3-------3---3-------3-|--5-------5-------------||
D|3-----------------------|------------1-----------|3-----------3-----------||
A|------------------------|------------------------|------------------------||
E|------------------------|3-----------------------|--------------------6-5-||

[Verse]
Gm
Armies march by tower and spire  
   Ebmaj7
Of cities blazing, in the fire;—
F
Till as I gaze with staring eyes,        
    Gm
The armies fade, the lustre dies.        

     Gm  
Then once again the glow returns;        
 Ebmaj7
Again the phantom city burns;    
    F
And down the red-hot valley, lo!
            Gm
The phantom armies marching go!  

[Chorus]
    Eb
And what the burning city is
     Bb   
That crumbles in your furnaces!  
    Eb
And what the burning city is
     Bb          F       
That crumbles in your furnaces! 

e|------3-----------3-----|------3-----------------||
B|----3---3-------3---3---|----6---6---------------||
G|--3-------3---3-------3-|--5-------5-------------||
D|------------1-----------|3-----------3-----------||
A|------------------------|------------------------||
E|3-----------------------|--------------------6-5-||

[Instrumental]
e|------3-----------3-----|------3-----------3-----|------3-----------3-----|------3-----------3-----||
B|----3---3-------3---3---|----3---3-------3---3---|----6---6-------6-----6-|----3---3-------3---3---||
G|--3-------3---3-------3-|--3-------3---3-------3-|--5-------5---5-----5---|--3-------3---3-------3-||
D|------------------------|1-----------1-----------|3-----------3-----------|------------------------||
A|------------------------|------------------------|------------------------|------------------------||
E|3-----------3-----------|------------------------|------------------------|3-----------3-----------||

e|------3-----------3-----|------3-----------3-----|------3-----------3-----|------3-----------3-----||
B|----3---3-------3---3---|----3---3-------3---3---|----6---6-------6-----6-|----3---3-------3---3---||
G|--3-------3---3-------3-|--3-------3---3-------3-|--5-------5---5-----5---|--3-------3---3-------3-||
D|------------------------|1-----------1-----------|3-----------3-----------|------------------------||
A|------------------------|------------------------|------------------------|------------------------||
E|3-----------3-----------|------------------------|------------------------|3-----------3-----------||

e|------3-----------3-----|------3-----------3-----|------3-----------3-----|------3-----------------||
B|----3---3-------3---3---|----3---3-------3---3---|----6---6-------6-----6-|----3---3---------------||
G|--3-------3---3-------3-|--3-------3---3-------3-|--5-------5---5-----5---|--3-------3-------------||
D|------------------------|1-----------1-----------|3-----------3-----------|------------------------||
A|------------------------|------------------------|------------------------|------------------------||
E|3-----------3-----------|------------------------|------------------------|3-----------3-------7-5-||

[Verse 3]
Gm  
Blinking embers, tell me true
Ebmaj7     
Where are those armies marching to,      
    F
And what the burning city is     
              Gm
That crumbles in your furnaces!

[Chorus]
    Eb
And what the burning city is
     Bb   
That crumbles in your furnaces!  
    Eb
And what the burning city is
     Bb          F         
That crumbles in your furnaces! 

Eb   Eb   Bb   Bb

    Eb
And what the burning city is
     Bb   
That crumbles in your furnaces!  
    Eb
And what the burning city is
     Bb          F         
That crumbles in your furnaces! 

e|------3-----------3-----|------3-----------------||
B|----3---3-------3---3---|----6---6---------------||
G|--3-------3---3-------3-|--5-------5-------------||
D|------------1-----------|3-----------3-----------||
A|------------------------|------------------------||
E|3-----------------------|--------------------6-5-||
            

* All the chords provided on here are the property of the respective artist, authors and labels, they are intended strictly for educational purposes,read,view and private study. All the contents are extracted from the internet and we are not getting any responsibility for the content.