Back Chat


Transposer


             Queen - Back Chat

Key Am  BPM 120    You Tube https://www.youtube.com/watch?v=y6QGP0OUaV4

   [Intro]

Riff
     Am*     C/E*       D/F#*     F/A*      G/B*
e|--12----  --8-----  --10----  --13----  --15----
B|----13--  --8-----  --10----  --13----  --15----
G|------14  ---9----  ----11--  ----14--  ----16--
D|--------  --------  --------  --------  --------
A|--------  --------  --------  --------  --------
E|--------  --------  --------  --------  --------
  Mmm,                 yeah               Ha!

  Am      C     Dm7     F


   [Chorus]
     Am                        C
Back chat, Back chat, you burn all my energy
     Dm7                   F
Back chat, Back chat, criticizing all you see
     Am                  C
Back chat, Back chat, analyzing what I say
     Dm7                      F
Back chat, Back chat, and you always get your way


   [Link]
     Am*     C/E*       D/F#*     F/A*      G/B*
e|--12----  --8-----  --10----  --13----  --15----
B|----13--  --8-----  --10----  --13----  --15----
G|------14  ---9----  ----11--  ----14--  ----16--
D|--------  --------  --------  --------  --------
A|--------  --------  --------  --------  --------
E|--------  --------  --------  --------  --------
                      Oh Yeah  See what you've done to me


   [Verse 1]
    Am                     C
Backchat, Backchat, you're driving me insane
       Dm7                          F
It's a battle to the end, knock you down, you come again
     Am                      C
Talk back, talk back, you've got me on the rack
         Dm7                           F
Twisting every word I say, you wind me up and get your way
    Am               C
Fat chance I have of making a romance
       Dm7                     F
If I'm ever gonna win, have to get the last word in

   [Riff]
Am*          C/E*   D/F#*  F/A*  G/B*
Take it from there,
Am*            C/E*
Twisting every word I say
D/F#* F/A*           G/B*
Huh,  wind me up and let me play


   [Chorus]
     Am                        C
Back chat, Back chat, you burn all my energy
     Dm7                   F
Back chat, Back chat, criticizing all you see
     Am                  C
Back chat, Back chat, analyzing what I say
     Dm7                      F
Back chat, Back chat, and you always get your way


   [Guitar Solo]
N.C.         N.C.
Am     C     Dm7       F    Am     C     Dm7       F

Am     C     Dm7       F    Am     C     Dm7       F

   [Riff]
     Am*     C/E*       D/F#*     F/A*      G/B*
e|--12----  --8-----  --10----  --13----  --15----
B|----13--  --8-----  --10----  --13----  --15----
G|------14  ---9----  ----11--  ----14--  ----16--    X3
D|--------  --------  --------  --------  --------
A|--------  --------  --------  --------  --------
E|--------  --------  --------  --------  --------
                                         Cmon now


   [Verse 2]
Am                    C
Wake up, stand up and drag yourself on out
    Dm7              F
Get down, get ready, scream and shout
     Am                C
Back off, be cool, and learn to change your ways
            Dm7                            F
'Cause your talking in your sleep and your walking in a daze
      Am                          C
Don't push your luck with me, I'm ready to attack
       Dm7                                F
'Cause when I'm tryna talk to you all you do is just talk back
    Am                      C
You stand so tall you don't flatter me at all
                 Dm7                         F
Don't talk back, don't talk back, don't talk back,Just leave me-

   [Riff]
     Am*     C/E*       D/F#*     F/A*      G/B*
e|--12----  --8-----  --10----  --13----  --15----
B|----13--  --8-----  --10----  --13----  --15----
G|------14  ---9----  ----11--  ----14--  ----16--
D|--------  --------  --------  --------  --------
A|--------  --------  --------  --------  --------
E|--------  --------  --------  --------  --------
   -alone             Hah


   [Chorus]
     Am                        C
Back chat, Back chat, you burn all my energy
     Dm7                   F
Back chat, Back chat, criticizing all you see
     Am                  C
Back chat, Back chat, analyzing what I say
     Dm7                      F
Back chat, Back chat, and you always get your way


   [Outro]
Am           C
Yes, you do, ah
Am           C
Yes, you do, baby, c'mon!
Am
Back chat, Back chat
Am
Back chat, Back chat (C'mon)
Am
Back chat, Back chat (Hit me!)
Am
Back chat, Back chat (Go for it! Go for it! Go for it! Baby)
Am
Back chat, Back chat


Mark W
            

* All the chords provided on here are the property of the respective artist, authors and labels, they are intended strictly for educational purposes,read,view and private study. All the contents are extracted from the internet and we are not getting any responsibility for the content.