Back Into Your World


Transposer


             Back Into Your World
From the album Straightaways

[INTRO]

   G6             G6/F#          Em7            G6/F#
e|-------0--------------0---------------0----------------------|
B|-----3---3----------3---3-----------3---3-------3----3-2-0---|
G|---0-------0------0-------0-------0-------0--------0-------2-|
D|-------------0--------------0---------------0----------------|
A|-------------------------------------------------------------|
E|-3--------------2--------------0--------------2--------------|

   G6             G6/F#          A            
e|-------0--------------0------------------3----|
B|-----3---3----------3---3--------------3----5-|
G|---0-------0------0-------0----2---2h4--------|
D|-------------0--------------0-----------------|
A|----------------------------------------------|
E|-3--------------2-----------------------------|

[VERSE 1]

D
  Living for the moment
A
  It flashes and fades
               Bm
And takes you down
   G               D    A
Familiar deserted byways

D
  Shelf-stored memories
A
  Lead you where you been
         Bm
No long ago
      G                   D   A
And guess who's guessing now?

[CHORUS]

        G6   G6/F#
Let me back        into your world
Em7                     G6/F#
    At the blink of the eye
              G6
No uncertain terms
       G6/F#           A
Let me back into your world

[VERSE 2]

D
  You should know
A                 Bm
  What is real by now
         G                 D     A
Let the judges meet their makers

D
  Can't slow down
A                          Bm
  Burning at four-barrel speed
   G                       D       A
A battle cry to treat this absence

[CHORUS]

        G6   G6/F#
Let me back        into your world
Em7                     G6/F#
    At the blink of the eye
              G6
No uncertain terms
       G6/F#           A
Let me back into your world

[SOLO]

         D                A                   Bm          G           D           A
e|-------------------------------------------------------------------------------------------|
B|-------------------------------------------------------------------------------------------|
G|-2/4-2------2-2/4-2------------------------------------------------------------------------|
D|-------4--4---------4-2-2---2-2--2-4-2--------------2-4h5--4-2----2h4-2------2--2----------|
A|---------------------------------------5-4-2--4-5---------------5--------5-4-------5-4-2---|
E|-----------------------------------------------------------------------------------------5-|

   G6        G6/F#         Em7        G6/F#      G6          G6/F#       A
e|---3---3----2-3--5-3-2-----3---3----2-3-2--------3---3----2-3--5-3-2--------------3----|
B|-3---3---3---------------3---3---3--------5-3--3---3---3------------------------3----5-|
G|-----------------------------------------------------------------------2---2h4---------|
D|---------------------------------------------------------------------------------------|
A|---------------------------------------------------------------------------------------|
E|---------------------------------------------------------------------------------------|


[VERSE 3]

D
  Spent the promises
A                 Bm
  Spent the meantime
        G                D              A
Through ins and outs of halfway house boundaries

D
  Leave this impasse
A                            Bm
  If you're gonna leave anything
      G                       D                A
Just don't leave here without   speaking your mind

[CHORUS]

        G6   G6/F#
Let me back        into your world
Em7                     G6/F#
    At the blink of the eye
              G6
No uncertain terms
       G6/F#           A
Let me back into your world

[OUTRO]

G6 G6/F# Em7 G6/F#

G6 G6/F# A

D Dsus4 D Dsus4 D Dsus4 D

************************************

| h  Hammer-on
| p  Pull-off
| /  Slide up

************************************
            

* All the chords provided on here are the property of the respective artist, authors and labels, they are intended strictly for educational purposes,read,view and private study. All the contents are extracted from the internet and we are not getting any responsibility for the content.