Between A Laugh And A Tear


Transposer


             -------------------------------------------------------------------------------
                  Between a Laugh and a Tear-John Mellencamp
-------------------------------------------------------------------------------
Tabbed by:Nick V.
E-mail:[email protected]

Tuning:EADGBE

[Intro]

C# A  G# B  F# C#  B

Riff #1
e|-------------------------------------------------------------------------|
B|-------------------------------------------------------------------------|
G|------9-11-9-------------------------------------------------------------|
D|-7/11--------11-9--------------------------------------------------------|
A|-------------------------------------------------------------------------|
E|-------------------------------------------------------------------------|

[Verse]

Asus2                   E
With paradise no longer fit for you to live in
C#m             Bsus 
Your adolescent dreams are gone 
Asus2                               E
Through the days you feel a little used up
C#m                         Bsus
Don't know where your energy's gone wrong

[Verse]

   Asus E   C#m   B
e|-0-0--0-0--0-0--x-x------------------------------------------------------|
B|-0-0--5-5--5-5--4-4------------------------------------------------------|
G|-2-2--4-4--6-6--4-4------------------------------------------------------|
D|-------------------------------------------------------------------------|
A|-------------------------------------------------------------------------|
E|-------------------------------------------------------------------------|

Asus2                          E
It's just your soul feeling a little downhearted
C#m                            Bsus
Sometimes life is too ridiculous to live
Asus2              E
Count your friends all on one finger
C#m                                                Bsus  Bsus2 
I know it sounds crazy, it's just the way that we live   M

[Chorus]
          Asus2       E
Between a laugh and a tear
C#m                    Bsus2
Smile in the mirror as you walk by
          Asus2       E
Between a laugh and a tear
          C#m                             Bsus2                        Asus2
That's as good as it gets for us but that ain't no reason to stop trying


e|-------------------------------------------------------------------------|
B|-------------------------------------------------------------------------|
G|------9-11-9------------9-11-9------9-11-9--11b12v-11-9-11-9-------------|
D|-7/11--------11-9--7/11--------7/11--------------------------------------|
A|-------------------------------------------------------------------------|
E|-------------------------------------------------------------------------|

C# A   G# B  F#  C#  B

C# A   G# B  F#  C#  B

 ...yeah yeah

[Chorus]
          Asus2       E
Between a laugh and a tear
C#m                    Bsus2
Smile in the mirror as you walk by
          Asus2       E
Between a laugh and a tear
          C#m                             Bsus2                        Asus2
That's as good as it gets for us but that ain't no reason to stop trying


Questions,comments, insults-BlindTerry333
            

* All the chords provided on here are the property of the respective artist, authors and labels, they are intended strictly for educational purposes,read,view and private study. All the contents are extracted from the internet and we are not getting any responsibility for the content.