Bohemian Rhapsody


Transposer


             ...BOHEMIAN RHAPSODY... by Queen
-----------------------.........

*from 'A Night At The Opera' (1975)*
*CAPO 3rd FRET*

(Original Key: Bb)


[Intro]

G6                      A7       G6   A7
 Is this the real life?  Is this just fantasy?
D7           Am7  D7           G            Am7 G
 Caught in a land-slide; no es-cape from re-ali-ty.

Em7                   G7                  C   C/B
 Open your eyes, look up to the skies and see.
Am7                  D7
 I'm just a poor boy, I need no sympathy, because I'm;

G#    G     F#   G   G#     G     F#     G
 Easy come, easy go, little high, little low.
C            G/B         C#dim          D7/A               G6
 Any way the wind blows, doesn't really matter to me... to me.


[Interlude]

G6


[Verse 1]

G6          Em9
 Mama, just killed a man,
      Am9                             Am7               D7
Put a gun against his head, pulled my trigger, now he's dead.
G6              Em9
 Mama, life had just begun,
    Am7               G#aug     C/G   Am7b5  Fmaj7  C/E
But now I've gone and thrown it all a-way.

C      G/B Am9         Dm      Dm/maj   F/C  Bm7b5
 Mama, ooh-ooh, didn't mean to make you cry.
   G                        G7      C
If I'm not back again, this time to-morrow;
      G/B       Am        Fm             C
Carry on, carry on, as if nothing really matters.


[Interlude]

C  F/C  C, Cdim  G7sus4, G6


[Verse 2]

G6            Em9
 Too late; my time has come,
     Am9                           Am7            D7
Sent shivers down my spine, body's achin' all the time.
G6                       Em9
 Goodbye everybody; I've got to go.
      Am7              G#aug    C/G      Am7b5  Fmaj7  C/E
Gotta leave you all be-hind and face the truth.

C      G/B Am9  Dm      Dmmaj7  F/C  Bm7b5
 Mama, ooh-ooh, I don't want to die.
  G                  G7                (C)
I sometimes wish I'd never been born at all.


[Solo]

    C       G/B         Am9
e|-------------------|---------------------------------|
B|-------------8--5--|--8b10-------10-12-13-10--12-13--|
G|-----7b9r7p5-------|----------x----------------------|
D|--5----------------|--------x------------------------|
A|-------------------|---------------------------------|
E|-------------------|---------------------------------|

    Dm    Dm/maj    F/C         Bm7b5
e|---------------------------12-13-15-15b17--|
B|--13b15--15---13-10-13b15------------------|
G|-------------------------------------------|
D|-------------------------------------------|
A|-------------------------------------------|
E|-------------------------------------------|

    G                                                    G7
e|--1517r15-13-12-13-12h13p10----12--------------------------------------|
B|----------------------------15----15-13-12-13-12h13p13----12-----------|
G|-------------------------------------------------------14----14-12-12--|
D|-----------------------------------------------------------------------|
A|-----------------------------------------------------------------------|
E|-----------------------------------------------------------------------|

    C                    G/B
e|-----------------12-13-15-15----------------12-13-15-15b17--|
B|--------12-13-15-------------------12-13-15-----------------|
G|--12-14----------------------12-14--------------------------|
D|------------------------------------------------------------|
A|------------------------------------------------------------|
E|------------------------------------------------------------|

    Am9
e|--17-------------------------------|
B|------12-13-10---12-13-10---12-13--|
G|-----------------------------------|
D|-----------------------------------|
A|-----------------------------------|
E|-----------------------------------|

    Dm    Dm/maj F/C  Bm7b5  A#    A#/A   A#/G#     A#/G
e|--------------------10--|----------------------------------------|
B|--13b15-15--------------|--------11--11-11-11-11--4--------------|
G|-----------7---9-10-----|--10-10--------------------3-3-3h4p2p1--|
D|------------------------|----------------------------------------|
A|------------------------|----------------------------------------|
E|------------------------|----------------------------------------|


[Interlude]

(*Tempo Change*)

F#


[Bridge 1]

B  F#    F#dim  F#    B     F#   F#dim
 I see a little silho-uetto of a man.
F#    B       F#   B       F#       F#dim  F#  B   F#
 Scar-mouche, Scar-mouche, will you do the Fan-dan-go?
A#                 F           A          C#7         F# (n.C)
 Thunder bolts and lightening; very, very frightening me.
   N.C.                                                  Am7
 Galileo, (Galileo), Galileo, (Galileo Figaro). Mangnifico-oh-oh-oh....

G#   G      F#   G    G# G    F#    G
 I'm just a poor boy, no-body loves me.

F/C    C      Cdim C    F/C    C    Cdim C
 (He's just a poor boy, from a poor fami-ly;
F              C/E            D7        G
 Spare him his life from this monstrosi-ty).


[Break]

F  C/E  Cdim  G7sus4

G#    G     F#   G   G#       G      F#
 Easy come, easy go, will you let me go?


[Bridge 2]

   N.C.  
 Bismillah!
C     G       C/G G7  C/G G     C
 (No! We will not let you go!) (Let him go!)
Bismillah!
G      C/G G7  C/G G     C
 (Will not let you go!) (Let him go!)
Bismillah!
G         C/G G7  C/G G     C
 (We will not let you go!) (Let me go!)

G      C/G G7  C/G G
 (Will not let you go), let me go!
G      C/G G7  C/G G
 (Will not let you go), let me go-oh-oh-oh, oh-oh-oh.

D#7
 Aah...
G#m F# B  A#7 D# G  C
 No no no no, no no no!

(n.C)                   C    F  C G7/B Am G
 Oh mama-mia, mama-mia, mama-mi-a let  me go!

   C    F          B7          Em       G7
Be-elze-bub, has a Devil put a-side for me, for me, for me...


[Solo]

    C
e|----------------------|---------------------|
B|----------------------|---------------------|
G|----------------------|---------------------|
D|----------------------|---------------------|
A|--3------------0-2-3--|--3-----------0------|
E|-----0-0-1--3---------|-----0-0-1--3---3-3--|

                           D
e|----------------------|---------------------|
B|----------------------|---------------------|
G|----------------------|---------------------|
D|----------------------|---------------------|
A|--3------------0-2-3--|--5-----------2------|
E|-----0-0-1--3---------|-----2-2-3--5---5-5--|


[Chorus 1]

G                                  C          G    A#
 So you think you can stone me and spit in my eye?
G                                 C           F   Em
 So you think you can love me and leave me to die?

Dm   G    Dm                    G
 Oh, baby, can't do this to me, baby.
Dm7             G    Dm7            G          (C)
 Just gotta get out, just gotta get right outta here.


[Solo]

    C
e|----------------------|---------------------|
B|----------------------|---------------------|
G|----------------------|---------------------|
D|----------------------|---------------------|
A|--3------------0-2-3--|--3-----------0------|
E|-----0-0-1--3---------|-----0-0-1--3---3-3--|

                           D
e|----------------------|---------------------|
B|----------------------|---------------------|
G|----------------------|---------------------|
D|----------------------|---------------------|
A|--3------------0-2-3--|--5-----------2-4-5--|
E|-----0-0-1--3---------|-----2-2-3--5--------|

    D#             F            G#7
e|---------------------------|---------------------------|
B|---------------------------|----------------------1-2--|
G|---------------------------|-------------1--2-1-3------|
D|-----------------7----7-8--|------1--2-4---------------|
A|--6-8-10-10-9-10---10------|--3-4----------------------|
E|---------------------------|---------------------------|

    F7                          G7
e|---------------------------|--------------------------|
B|---------------------------|---------------3---3-5-6--|
G|------------------------0--|----2-4--2-4-5---5--------|
D|------------0--1-0-1--3----|--5-----------------------|
A|------0-1-3----------------|--------------------------|
E|--1-3----------------------|--------------------------|


[Interlude]

(*Slower Tempo*)

C     G7/B  Am, E7/G# Am    E7/G# Am
 Ooh...         Ooh   yeah, ooh   yeah.

G  C, B  Em, F  C


[Coda]

Am              Em      Am          Em
 Nothing really matters, anyone can see.
Am              Fm       F/G                       (C)
 Nothing really matters, nothing really matters, to me.


[Interlude]

C, F/C , C  Cdim  G/B , G#m/A#  A  A7b9 , A7  D


[Outro]

G/D  D       Fdim A7sus4  D
 Any way the wind blows.


CHORD DIAGRAMS:
---------------

   G6      A7      D7      Am7     G       Em7     G7      C

 EADGBE  EADGBE  EADGBE  EADGBE  EADGBE  EADGBE  EADGBE  EADGBE
 322000  x02223  xx0212  x02013  320003  022030  323000  x32010

   C/B     G#      F#      G/B    C#dim   D7/A     Em9     Am9

 EADGBE  EADGBE  EADGBE  EADGBE  EADGBE  EADGBE  EADGBE  EADGBE
 x20010  466544  244322  x20033  xx2323  x00232  022002  575557

  G#aug    C/G    Am7b5   Fmaj7    C/E     Dm    Dm/maj    F/C

 EADGBE  EADGBE  EADGBE  EADGBE  EADGBE  EADGBE  EADGBE  EADGBE
 xxx110  332010  x01213  x03210  xx2010  xx0231  xx0221  x33211

  Bm7b5    Am      Fm     Cdim   G7sus4    A#     A#/A    A#/G#

 EADGBE  EADGBE  EADGBE  EADGBE  EADGBE  EADGBE  EADGBE  EADGBE
 x2323x  x02210  133111  xx1212  353533  x13331  x03331  41333x

  A#/G     B      F#dim    A       C#7     D#7     G#m     D#

 EADGBE  EADGBE  EADGBE  EADGBE  EADGBE  EADGBE  EADGBE  EADGBE
 31333x  x24442  xx1212  577655  x46464  x68686  464444  x68886

   A#7    G7/B     B7      D       Em      Dm7     G#7     F7

 EADGBE  EADGBE  EADGBE  EADGBE  EADGBE  EADGBE  EADGBE  EADGBE
 686766  x20001  021202  xx0232  022000  xx0211  464544  131211

  E7/G#    F/G   G#m/A#   A7b9     G/D    Fdim   A7sus4

 EADGBE  EADGBE  EADGBE  EADGBE  EADGBE  EADGBE  EADGBE
 xxx130  303211  x1110x  x02323  xx0003  xx0101  x02030


***********************************
| h   Hummer-on
| p   Pull-off
| b   Bend
| r   Release
| x   Dead note
***********************************
            

* All the chords provided on here are the property of the respective artist, authors and labels, they are intended strictly for educational purposes,read,view and private study. All the contents are extracted from the internet and we are not getting any responsibility for the content.