Breakaway


Transposer


             [Chords]
E       0-11-9-9-x-x
E9sus   0911xx
Bsus/G# 4x4400
A(add9) 5x7600
C#m9*   9x9800
C#m7*   9x9900
F#m11   2x2200
F#7     2x232x
B9sus   7x7600


[Intro]

   E                                                              E9sus
e|-------------------------------|-------------------------------|----------------------------|
B|-------------------------------|-------------------------------|----------------------------|
G|-9----9---9----9---9-----------|-9----9---9----9---9-----------|-7---7---7---7---7----------|
D|-9----9---9----9---9-----------|-9----9---9----9---9-----------|-7---7---7---7---7----------|
A|-9h11-----9h11-----9h11p9------|-9h11-----9h11-----9h11p9------|-7h9-----7h9-----7h9p7------|
E|-0------x-0------x-0------0h12-|-0------x-0------x-0------0h12-|-0-----x-0-----x-0-----0h10-|
(x = slap strum)

   E9sus                       C#m9 C#m7 D6sus2 E
e|----------------------------|-----------0---|-------------------------------|-------------------------------|
B|----------------------------|-4--4h5----0---|-------------------------------|-------------------------------|
G|-7---7---7---7---7----------|-4--4------9---|-9----9---9----9---9-----------|-9----9---9----9---9-----------|
D|-7---7---7---7---7----------|-2--2------7---|-9----9---9----9---9-----------|-9----9---9----9---9-----------|
A|-7h9-----7h9-----7h9p7------|-4--4------5---|-9h11-----9h11-----9h11p9------|-9h11-----9h11-----9h11p9------|
E|-0-----x-0-----x-0-----0h10-|---------------|-0------x-0------x-0------0h12-|-0------x-0------x-0------0h12-|

  E9sus                         E9sus                       C#m9 C#m7 D6sus2
e|----------------------------|----------------------------|-----------0---|
B|----------------------------|----------------------------|-4--4h5----0---|
G|-7---7---7---7---7----------|-7---7---7---7---7----------|-4--4------9---|
D|-7---7---7---7---7----------|-7---7---7---7---7----------|-2--2------7---|
A|-7h9-----7h9-----7h9p7------|-7h9-----7h9-----7h9p7------|-4--4------5---|
E|-0-----x-0-----x-0-----0h10-|-0-----x-0-----x-0-----0h10-|---------------|

*for the other intros use same chord positions and strumming


[Verse 1]

E               E9sus
If melody is my destiny
            C#m9    C#m7 D6sus2
Then what's left of me
D6sus2           E
I'll give to you

   E
If next to me
                E9sus
Is all that you need to be
                     C#m9    C#m7 D6sus2
Would you settle for fantasy
D6sus2                     E
If it's the best you could do


[Verse 2]

      Bsus/G#
Can I have my cake
      A(add9)
Can I have you too
          Bsus/G#
Would you follow me
        C#m9*   C#m7* C#m9* C#m7*
Could I ask you to

          F#m11
Would the world between us
F#m11
Break these ties
      Bsus/G#
We've work so hard to realize
      F#7
Can a postcard say
       F#7
What I see in your eyes
A(add9)      B9sus      E
Could I ever break away


[Intro 2]

E E9sus C#m9 C#m7 D6sus2 E


[Verse 3]

E
Would I be satisfied
         E9sus
And find peace inside
        C#m9    C#m7 D6sus2
Rolling half my life
                  E
Over broken white lines

      Bsus/G#
Can I have my cake
      A(add9)
Can I have you too
          Bsus/G#
Would you follow me
        C#m9*   C#m7* C#m9* C#m7*
Could I ask you to

       F#m11
Will I wake up one morning
F#m11
And see your face
     Bsus/G#
And streaks on the window
Bsus/G#
That the rainstorm makes
          F#7
Could you bear all the weight
         F#7
And the strength that it takes
A(add9)      B9sus      E
Could I ever break away


[Intro 3]

E             E9sus      C#m9 C#m7 D6sus2 E
E E          D/E D/E    C#m9 C#m7 D6sus2 E/G E
 Could I ever break away


[Verse 4]

      Bsus/G#
Can I have my cake
      A(add9)
Can I have you too
          Bsus/G#
Would you follow me
        C#m9*   C#m7* C#m9* C#m7*
Could I ask you to

          F#m11
Would the world between us
F#m11
Break these ties
      Bsus/G#
We've work so hard to realize
      F#7
Can a postcard say
       F#7
What I see in your eyes
A(add9)      B9sus      E
Could I ever break away


[Ending]

E              E9sus
  Could I ever break away
Csus2 Dsus  E(add9)
Away, away, away
            

* All the chords provided on here are the property of the respective artist, authors and labels, they are intended strictly for educational purposes,read,view and private study. All the contents are extracted from the internet and we are not getting any responsibility for the content.