Camacho


Transposer


             [Verse 1]
         Gm      Bb          C              Gm
Well you know my heart was a lonely boulevard
  Gm      Bb             D      D
Until you drove into my way
            Gm          Bb                      C                    Gm
And now the stars shine bright at night and the light shines in my day
        Gm                C
And you know I wouldn't be here if not for you

e|-----------------------------------------------|
B|-----------------------------------------------|
G|-----------------------------------------------|
D|-----------------------------------------------|
A|----1-/5--3-----1-----------1-/5--3----1-------|
E|-3-----------------3--1--3---------------------|


[Verse 2]
     Gm             Bb                 C            Gm
Well hey, it was an awful place that I got myself into
             Gm         Bb             D      D
But you took me and you showed me the way
        Gm        Bb                  C                 Gm
Now I'm safe from all my pain and the devil's work is due
        Gm                C
And you know I wouldn't be here if not for you

e|-----------------------------------------------|
B|-----------------------------------------------|
G|-----------------------------------------------|
D|-----------------------------------------------|
A|----1-/5--3-----1-----------1-/5--3----1-------|
E|-3-----------------3--1--3---------------------|


[Instrumental]
Gm  Bb  C  Gm
Gm  Bb  D  D
Gm  Bb  C  Gm
Gm  C

e|----------------------------------------------------------------------------------------------|
B|----------------------------------------------------------------------------------------------|
G|----------------------------------------------------------------------------------------------|
D|----------------------------------------------------------------------------------------------|
A|----1-/5--3-----1-----------1-/5--3----1-----------1-/5--3-----1-----------1-/5--3----1-------|
E|-3-----------------3--1--3----------------3--1--3-----------------3--1--3---------------------|


[Verse 3]
  Gm          Bb              C                   Gm
I thank every living day that I have spent with you
        Gm               Bb           D      D
Nothing sweeter, nothing bitter in my day
          Gm     Bb                 C                     Gm
And those lonely desperate days are long gone, that is true
        Gm                C
And you know I wouldn't be here if not for you

e|-----------------------------------------------|
B|-----------------------------------------------|
G|-----------------------------------------------|
D|-----------------------------------------------|
A|----1-/5--3-----1-----------1-/5--3----1-------|
E|-3-----------------3--1--3----------------3--1-|

         Gm                C
Yeah you know I wouldn't be here if not for you

e|-----------------------------------------------|
B|-----------------------------------------------|
G|-----------------------------------------------|
D|-----------------------------------------------|
A|----1-/5--3-----1-----------1-/5--3----1-------|
E|-3-----------------3--1--3----------------3--1-|

         Gm                C
Yeah you know I wouldn't be here if not for you

e|-------------------------------------------------------------------------------------------------|
B|-------------------------------------------------------------------------------------------------|
G|-------------------------------------------------------------------------------------------------|
D|-------------------------------------------------------------------------------------------------|
A|----1-/5--3-----1-----------1-/5--3----1-----------1-/5--3-----1-----------1-/5--3----1----------|
E|-3-----------------3--1--3----------------3--1--3-----------------3--1--3----------------3--1--3-|


****************************

| /  Slide up

****************************
            

* All the chords provided on here are the property of the respective artist, authors and labels, they are intended strictly for educational purposes,read,view and private study. All the contents are extracted from the internet and we are not getting any responsibility for the content.