Carmesí


Transposer


             [Acordes utilizados]
e|---2---|---2---|-------|-------|-------|-------|
B|---2---|---2---|---6---|---6---|---7---|---7---|
G|---3---|---5---|---5---|---4---|---6---|---5---|
D|---4---|---6---|---6---|---6---|---8---|---7---|
A|---4---|---6---|---4---|---5---|---6---|---6---|
E|---2---|---4---|--(4)--|-------|-------|-------|
     F#      G#    C#maj7  Ddim7    Ebm7   D#dim7

[Intro]
    F#maj7         F#/G#           C#maj7          Ddim7   
e|---1-x-1---1-x-1-------------------------------------------------|
B|---2-x-2---2-x-2-2-----1-----2-----6-x-6---6-x-6---6-x-6---6-6-6-|
G|---3-x-3---3-x-3-3----(5)----------5-x-5---5-x-5---4-x-4---4-4-4-|
D|---4-x-4---4-x-4-4-----------------6-x-6---6-x-6---6-x-6---6-6-6-|
A|---------------------------------4-------4-------5-------5-------|
E|-2-------2-------4-----------------------------------------------|

    F#maj7         F#/G#           C#maj7          Ddim7  
e|---1-x-1---1-x-1------------------------------------|
B|---2-x-2---2-x-2-2-----1-----2-----6-x-6---6-x-6-6~-|
G|---3-x-3---3-x-3-3----(5)----------5-x-5---5-x-5-4~-|
D|---4-x-4---4-x-4-4-----------------6-x-6---6-x-6-6~-|
A|---------------------------------4-------4-------5~-|
E|-2-------2-------4----------------------------------|

[Verso 1]
F#                      G#                C#maj7           Ddim7
Vida que ha venido pa llenarme de color el alma 
F#                          G#                C#maj7           Ddim7
hoy navego en tus lunares y en tus labios carmesí 
Ebm7                  D#dim7    C#maj7            Ddim7
    como se cuece el calor de tu piel en mi piel 
             Ebm7           D#dim7         C#maj7   
se vuelve el cuento, fantasía    amada mía. Oooh
    Ddim7
Que dibuja mi sol 

[Coro]
     F#               G#                  C#maj7              Ddim7
Como vino tu voz y me dijo que el amo eres tú,   cigüita alzando vuelo 
     F#               G#                  C#maj7               Ddim7
como vino tu olor a llenarme de inmensa gratitud me llevas a tu nido de amor
     F#                 G#                 C#maj7               Ddim7
como vino tu piel, para dibujar cariño y querer, llegaste justo a tiempo 
     F#                G#                    C#maj7           Ddim7
como vino tu olor y me dijo que el amor eres tú

[Instrumental]
    F#maj7         F#/G#           C#maj7          Ddim7   
e|---1-x-1---1-x-1-------------------------------------------------|
B|---2-x-2---2-x-2-2-----1-----2-----6-x-6---6-x-6---6-x-6---6-6-6-|
G|---3-x-3---3-x-3-3----(5)----------5-x-5---5-x-5---4-x-4---4-4-4-|
D|---4-x-4---4-x-4-4-----------------6-x-6---6-x-6---6-x-6---6-6-6-|
A|---------------------------------4-------4-------5-------5-------|
E|-2-------2-------4-----------------------------------------------|

    F#maj7         F#/G#           C#maj7          Ddim7  
e|---1-x-1---1-x-1------------------------------------|
B|---2-x-2---2-x-2-2-----1-----2-----6-x-6---6-x-6-6~-|
G|---3-x-3---3-x-3-3----(5)----------5-x-5---5-x-5-4~-|
D|---4-x-4---4-x-4-4-----------------6-x-6---6-x-6-6~-|
A|---------------------------------4-------4-------5~-|
E|-2-------2-------4----------------------------------|

[Verso 2]
F#                   G#           C#maj7           Ddim7
Lluvia que ha bajado    desde la montaña 
F#                         G#                C#maj7        Ddim7
mis caricias, tus caricias que se tejen entre sí 
Ebm7                  D#dim7    C#maj7            Ddim7
   como contrasta el color de tu piel con mi piel
             Ebm7           D#dim7         C#maj7   
se vuelve el cuento, fantasía    amada mía. Oooh
    Ddim7 
Que dibuja mi sol.

[Coro]
     F#               G#                  C#maj7              Ddim7
Como vino tu voz y me dijo que el amo eres tú,   cigüita alzando vuelo 
     F#               G#                  C#maj7               Ddim7
como vino tu olor a llenarme de inmensa gratitud me llevas a tu nido de amor
     F#                 G#                 C#maj7               Ddim7
como vino tu piel, para dibujar cariño y querer, llegaste justo a tiempo 
     F#                G#                    C#maj7           Ddim7
como vino tu olor y me dijo que el amor eres tú

[Outro]
F#                      G#                C#maj7           Ddim7
Vida que ha venido pa llenarme de color el alma 
F#                          G#                C#maj7
hoy navego en tus lunares y en tus labios carmesí 



**************************

| x   Mute/Dead note
| /   Slide up
| ~   Sustain/Vibrato

**************************
            

* All the chords provided on here are the property of the respective artist, authors and labels, they are intended strictly for educational purposes,read,view and private study. All the contents are extracted from the internet and we are not getting any responsibility for the content.