Carry Me Away


Transposer


             For the chorus you can play either Esus4 E or A E. Both sound decent to me.

[Intro]
Palm mute these notes, played until '...behind the summer'
e|---------------------------------------------------------------------------|
B|---------------------------------------------------------------------------|
G|---------------------------------------------------------------------------|
D|---------------------------------------------------------------------------|
A|--7--7--7--7--7--7--7--7--7--7--7--7--9------------------------------------|
E|-----------------------------------------7---------------------------------|

This is played right after 'There must be more behind the summer'
e|---------------------------------------------------------------------------|
B|---------------------------------------------------------------------------|
G|--9/11--9/11---------------------------------------------------------------|
D|--9/11--9/11---------------------------------------------------------------|
A|---------------------------------------------------------------------------|
E|---------------------------------------------------------------------------|
This is the short lick right before the second verse
e|---------------------------------------------------------------------------|
B|---------------------------------------------------------------------------|
G|---------------------------------------------------------------------------|
D|-------9p6--9p6------------------------------------------------------------|
A|--7h9----------------------------------------------------------------------|
E|-----------------9---------------------------------------------------------|



[Verse 1]
N.C.
I'm such a bore, I'm such a bummer
N.C.
There must be more behind the summer

I want someone to make some trouble
                                E
Been way too safe inside my bubble, oh
         (Esus4)                  E
Take me out and keep me up all night
          E          (Esus4)        E
Let me live on the wilder side of life


[Chorus]
             Esus4 E 
Carry me away
             Esus4 E 
Carry me away
             Esus4 E 
Carry me away
             Esus4 E 
Carry me away
             Esus4 E 
Carry me away
  E        E  (open)
Carry me away

             Esus4 E 
Carry me away
             Esus4 E 
Carry me away
             Esus4 E 
Carry me away
             Esus4 E 
Carry me away
             Esus4 E 
Carry me away
          A E  (open)
Carry me away

Esus4 E C#m

[Verse 2]
     C#m                      A
You carnivore, you loose cannon
                A                        E
Can I have some more? I can't understand it
            E                  A
You fast car, you foolish spender
            A        E
You know you are, and I surrender
                    Esus4        E
So come on over and wake me up
                     C#m           Esus4     E
Put some of your tequila in my coffee cup
     C#m                               E
You know I need you, and that's for sure
                      C#m                  A
You're just the kinda crazy I've been lookin' for

[Chorus]
             Esus4 E 
Carry me away
             Esus4 E 
Carry me away
             Esus4 E 
Carry me away
             Esus4 E 
Carry me away
             Esus4 E
Carry me away
 E         E  (open)
Carry me away

             Esus4 E 
Carry me away
             Esus4 E 
Carry me away
             Esus4 E 
Carry me away
             Esus4 E 
Carry me away
             Esus4 E
Carry me away
          A E  (open)
Carry me away

[Outro]
E G#m G#7sus4 A E



************************************

| /  Slide up
| p  Pull-off
| h  Hammer-on

************************************
            

* All the chords provided on here are the property of the respective artist, authors and labels, they are intended strictly for educational purposes,read,view and private study. All the contents are extracted from the internet and we are not getting any responsibility for the content.