Celofán


Transposer


             FILL 1
     G         C
-------------------------------------
-------------------------------------
-------------5-5-5-------------------
----5-5-5----5-5-5-4b----------------
----5-5-5-4b-3-3-3-------------------
----3-3-3----------------------------


Comprar azul acero es todo lo que quiero,
plantar un par de sueños y despegar del suelo.

      G         C       B  A
---------------------------/---3-3-3-----
---------------------------/---3-3-3-----
-------------5-5-5----4--2-/---0-0-0-----
----5-5-5----5-5-5-4b-4--2-/-------------
----5-5-5-4b-3-3-3----2--0-/-------------
----3-3-3--------------------------------

Soñar envuelto en pliegos, dejar atrás el miedo.
Quebrar las formas viejas y despertar de nuevo.

                      Es papel....
--------------------/-------------------------
--------------------/-------------------------
----------------8-9-/-------------------------
-5-5-5--6--7-7--8-9-/----5-5-5-6-7-7--6-5-----
-5-5-5--6--7-7--6-7-/----5-5-5-6-7-7--6-5-----
-3-3-3--4--5-5------/----3-3-3-4-5-5--4-3-----

Arreglo:
---------------------
---------------------
--0-2/-4/-2-0--2-2---
---------------------
---------------------
---------------------


CORO:
Es papel de celofán, lo que cambia de color,
lo que pierdes con el tiempo y lo que vuelves a encontrar.


FILL 1
No estoy volando lejos, no estoy volando cerca,
eso que quieres ver en mi es lo que se refleja.

CORO:
Es papel de celofán, lo que cambia de color,
lo que pierdes con el tiempo y lo que vuelves a encontrar.

Comprar azul acero es todo lo que quiero,
plantar un par de sueños y despegar del suelo.
            

* All the chords provided on here are the property of the respective artist, authors and labels, they are intended strictly for educational purposes,read,view and private study. All the contents are extracted from the internet and we are not getting any responsibility for the content.