Changing


Transposer


             John Mayer
"Changing"

Standard tuning. Corrections welcome!


  C    F    G    Am   F/G  G7  C/E   F6   F/A Fadd9 Fadd9b5
e|0----1---(0)---0----1----3----0---(1)---1----3---------|
B|1----1----3----1----1----3----1----3----1----1----0----|
G|0----2----0----2----2----4----0----2----2----2----2----|
D|2----3----0----2----3----3----2----3----3----3----3----|
A|3----3----2----0----X----5----3---(3)---0----x---(2)---|
E|-----1----3---------3----3----0----1--------(1)--------|


[Chorus]
         C    F   C 
I am not done changing
           C    G   C
Out on the run, changing
         Am               C
I may be old and I may be young
             F    F/G C
But I am not done changing

[Verse]
         C       F   C 
I met me someone changing
            C   G7  C  
We had some fun changing
           Am                       C  
Sometimes I wonder if she'll be the one
          F    F/G C
When I am done changing
G                          C
Some of us stopped running
G                   C
Some of us went home
Am                      C
Some of us don’t got one
         Am        C/E    G
So we'll build one of our own
G                          C
Friends behind their fences
G                    C
Looking at me strange
Am                       C    
Wondering when I’m gonna come to my senses
    F         F6
But I'm still changing
    F       F6
And I can’t change my ways

[Break]
  C                              F
e|-----------------------------------------------------|
B|---------------------10-8----------------------------|
G|7-9---9---7-9~-------------9---5-7/9-5~--------------|
D|---------------------------------------------------5-|
A|-------------------------------------------------7---|
E|-----------------------------------------------------|

  C                              F
e|-----------------------------------------------------|
B|---------------------10-8----------------8b10~--r8~--|
G|7-9---9---7-9~-------------9---5-7/9-5~--------------|
D|-----------------------------------------------------|
A|-----------------------------------------------------|
E|-----------------------------------------------------|

[Verse]
          C   F   C
I see the sky changing
              C  G7  C 
Reminds me of my changing
             F/A                      C
Wish I could tie me a rope 'round the sun
                F    G7 C 
'Cause I am not done changing

[Bridge]
G                        C
Time's been talking to me
G                   C
Whispering in my ear
        F/A
Saying “Follow your heart
        C
'Til it tears you apart”
Fadd9           Fadd9b5
But hearts keep changing
Fadd9       Fadd9b5
Hearts keep changing
Fadd9       Fadd9b5
Hearts keep changing
Fadd9       Fadd9b5
Hearts keep changing...

[Solo]
  Fadd9  Fadd9b5    Fadd9 Fadd9b5                  Fadd9           Fadd9b5
e|---------------------------------------------------------------------|
B|13/15~------------------12b------------------------------------------|
G|------------------10-12-12b------------------------------------------|
D|------------12-12------------12~---10h12--b13r12p10~---10h12p10\7~---|
A|---------------------------------------------------------------------|
E|---------------------------------------------------------------------|

  Fadd9               Fadd9b5              Fadd9                 Fadd9b5
e|-------------------------------------15-------15---------------------|
B|---------8-b10-b10~----12-13-15-15b17----15b17----15b17r15p13-15~----|
G|-------7------------14-----------------------------------------------|
D|7h10p7---------------------------------------------------------------|
A|---------------------------------------------------------------------|
E|---------------------------------------------------------------------|

  Fadd9                             Fadd9b5 
e|------17--------17---------------------------10-----10-----10-----10-|
B|15b17-----15b17-----15b17r15p13-15~--10-13b15--13b15--13b15--13b15---|
G|---------------------------------------------------------------------|
D|---------------------------------------------------------------------|
A|---------------------------------------------------------------------|
E|---------------------------------------------------------------------|

  Fadd9                          G7                      Fadd9
e|13-10----------------------------------------------------------------|
B|------------------10-------------------------------------------------|
G|-----/12-10-12-10--------------10------------------------------------|
D|---------------------12~-10h12-----------------------10h12-b13r12p10-|
A|----------------------------------12~-10-12-12-10-12~----------------|
E|---------------------------------------------------------------------|

           G7          Fadd9       G7            Fadd9      G7
e|---------------------------------------------------------------------|
B|-----------------------------------------------15b17-b17--r15-15~----|
G|---------------------9-10-9-/12~----10-9-----------------------------|
D|12-10----------10-12---------------------12--------------------------|
A|------10---/12-------------------------------------------------------|
E|---------13----------------------------------------------------------|

           C       F         C        F        C       F        C
e|---------------------------------------------------------------------|
B|13b15r13-13~-----13b15r13-13~------13b15r13-13~-----13b15r13-13~-----|
G|---------------------------------------------------------------------|
D|---------------------------------------------------------------------|
A|---------------------------------------------------------------------|
E|---------------------------------------------------------------------|

[Chorus]
         C    F   C 
I am not done changing
           C    G   C
Out on the run, changing
         Am               C
I may be old and I may be young 
             F    F/G C
But I am not done changing

[Outro]
F  F/G C
   Changing
F  F/G C
   Changing



***********************************
| /   Slide up
| \   Slide down
| h   Hummer-on
| p   Pull-off
| ~   Vibrato
| x   Dead note
| b   Bend
| r   Bend release
| ()  Optional chord noes
***********************************
            

* All the chords provided on here are the property of the respective artist, authors and labels, they are intended strictly for educational purposes,read,view and private study. All the contents are extracted from the internet and we are not getting any responsibility for the content.