Coming Soon


Transposer


             Song: Coming Soon
Artist: Queen
Album: The Game (1980)
Provided By Ben Brown

Pretty simple song, but super catchy. Enjoy!


G  D  G  D  
Oooo  oooo
D  C  G  D
Oh Oh Oh Oh

A                                          E
I get some headaches when I hit the heights
C                                     G
Like in the morning after crazy nights
A                                          E
Like some mother in law in her nylon tights

   D
   They're always, they're always

   They're always, they're always


You take 'em

A                                         E
The same old babies with the same old toys
C                                           G
The neighbours screaming when the noise annoys
A                                                 E
Somebody naggin' you when you're out with the boys

A                              D              E
Coming soon Coming soon on the outside of the tracks
C    D#   G
Yeah yeah yeah

C    D#   G
Yeah yeah yeah

[solo:]
A | A | E | E 
C | C | G | G
A | A | E | E

|-------5---------5-------------------------------------------------------------|
|-------5-----------------------------------8b10---b9---5---b10-b10-b10r9-5-5-/-|
|-7b9-------7b9-------7p5----5b6-5bvvvv-----------------------------------------|
|-------------------------------------------------------------------------------|
|------------------------7------------------------------------------------------|
|-------------------------------------------------------------------------------|

|-------8---------------------------------------------------------------(0)-------------|
|---------118118-----------11b13---11-8---------11b13---b12---8---11b13-b13-b12_r-8-8-/-|
|-10b12---------11108108b---------------8b----------------------------------------------|
|------------------------------------------10-------------------------------------------|
|---------------------------------------------------------------------------------------|
|---------------------------------------------------------------------------------------|

|----15--15--15--15--15--15--15--15----------------------|
|-15b17-b17-b17-b17-b17-b17-b17-b17-b17---r15p1315--13b--|
|--------------------------------------------------------|
|--------------------------------------------------------|
|--------------------------------------------------------|
|--------------------------------------------------------|

|-15b17-b17-b17-b17---r15p12----------------------------------------------------------------|
|---------------------------15b17-15b17---r151215121512151214121312--12------------14b15vvv-|
|------------------------------------------------------------------15--151412--12-----------|
|----------------------------------------------------------------------------14-------------|
|-------------------------------------------------------------------------------------------|
|-------------------------------------------------------------------------------------------|

   A                              D              E
Coming soon Coming soon on the outside of the tracks


A                              D              E
Coming soon Coming soon on the outside of the tracks
C    D#   G
Yeah yeah yeah
            

* All the chords provided on here are the property of the respective artist, authors and labels, they are intended strictly for educational purposes,read,view and private study. All the contents are extracted from the internet and we are not getting any responsibility for the content.