Conocerte Es Amarte


Transposer


             Intro
D Bm A F#m

Estrofa

D
Conocerte es amarte
   Bm                                   G
Adorarte es vivir la mejor parte de tu amor
                  F#m
Magnifico y celestial

Pre coro
              A
Inspiras devoción
               D
Precioso Salvador
              A
Eres tú la fuente
   D           G
De este gran amor

Coro
D                E/B
Gracias por rescatarme
        A               F#m       (C#m)
Padre, gracias por Tu amor sin fin
 D            E/B
Toda mi devoción
             C#m   F#m
Y fervor para Ti

Estrofa
Precoro
Coro x2

Solo
D  Bm  G  F#m

e-:-----------------------------------------
B-:-8----8-7----8-7-----8-------------------
G-:---4-7----4-7----4-7---7-6---------------
D-:-----------------------------------------

e-:-15-----15-14-----15-14-----15-----------
B-:---12-15-----12-15-----12-15---15-14h----
G-:-----------------------------------------
D-:-----------------------------------------

Coro
Final se queda en C#m

G-B-D-G-F#-B-D-G-F#-B-D-G-D-C#

Cualquier correccion hacermela llegar, tienen mi correo y bueno.
Bendiciones
            

* All the chords provided on here are the property of the respective artist, authors and labels, they are intended strictly for educational purposes,read,view and private study. All the contents are extracted from the internet and we are not getting any responsibility for the content.