Dancing On A High Wire


Transposer


             Dancing on a High Wire - Alan Parsons Project
Tabbed by Landon Lefebvre


[Intro]
Dsus4  G/D     Gm  D  [x3]


[Verse 1]
     Dsus2
We're living in a different reality
      Gm7            Am7
We're toeing the same line
       Dsus2
We give in we call it neutrality
   Gm7                  Am7
A joke with no punchline
                  Bb    C
The silver plated hero
                    Dsus2
Meets the golden hearted whore
                     Bb    C
The odds'll give you zero
                       Dm          Asus4/E  Dsus2/E
She'll be leaving in a few days more
Dsus4        G/D   Gm              D
Movin' on forever, maybe she don't care
Dsus4         G/D    Gm                   D
Holding on together, maybe it just ain't there


[Chorus]
Dsus2               Bb        C
You're dancing on a high wire
               Dm
You need to be so sure
                   Bb       C
There used to be a lifeline
            Dm
There isn't anymore


[Verse 2]
     Dsus2
We are the same with no similarity
      Gm7            Am7
We talk at the same time
       Dsus2
We believe in freedom and charity
   Gm7                  Am7
As long as I get mine
          Bb    C
The ivory madonna is walking
                    Dsus2
Through the door
                     Bb    C
You watch her from a window
                       Dm          Asus4/E  Dsus2/E
It doesn't matter anymore
Dsus4        G/D   Gm              D
Moving on forever, maybe she don't care
Dsus4         G/D    Gm                   D
Holding on together, maybe it just ain't there


[Chorus]
Dsus2               Bb        C
You're dancing on a high wire
               Dm
You need to be so sure
                   Bb       C
There used to be a lifeline
            Dm
There isn't anymore


[Solo]

e|---------------------------------------------------|
B|----------6p5--------------------------------------|
G|--------------7--7-------------------10------------|
D|----/7-----------------10--10^p8-------------------|
A|---------------------------------10-------/12--10--|
E|---------------------------------------------------|

e|---------------------------------------------------|
B|----------6p5-------------------------------8^10^8-|
G|--------------7--7-------------------10------------|
D|----/7-----------------10--10^p8-------------------|
A|---------------------------------10----------------|
E|---------------------------------------------------|

e|---8--------------------8--10--------------------------------|
B|------5--/8--6----/10------------10\8--6--^8p6----------6----|
G|------------------------------------------------7--7-------7-|
D|-------------------------------------------------------------|
A|-------------------------------------------------------------|
E|-------------------------------------------------------------|

e|------------8--10----12^13---13p10-----10-----15^17-----12h13p12------10--|
B|---/10--10-------------------------13----------------------------13-------|
G|--------------------------------------------------------------------------|
D|--------------------------------------------------------------------------|
A|--------------------------------------------------------------------------|
E|--------------------------------------------------------------------------|


[Pre-Chorus]
Dsus4         G/D  Gm              D
Moving on forever, maybe she don't care
Dsus4         G/D    Gm                   D
Holding on together, maybe it just ain't there


[Chorus]
Dsus2               Bb        C
You're dancing on a high wire
               Dm
You need to be so sure
                   Bb       C
There used to be a lifeline
            Dm
There isn't anymore


[Chorus]
Dsus2               Bb        C
You're dancing on a high wire
               Dm
You need to be so sure
                   Bb       C
There used to be a lifeline
            Dm
There isn't anymore



************************************

| p  Pull-off
| /  Slide up
| \  Slide down
| h  Hammer-on

************************************
            

* All the chords provided on here are the property of the respective artist, authors and labels, they are intended strictly for educational purposes,read,view and private study. All the contents are extracted from the internet and we are not getting any responsibility for the content.