Daylight


Transposer


             I know that Failure plays in half-step tuning, but you don't necessarily need it to play this song. Besides, 
the song is fairly slow-paced and transposing shouldn't really be much of a challenge here. On top of that, 
the whole song follows the same chord progression. 

[Intro]

Here is the piano riff tabbed out for guitar. Keep in mind that the piano on the recording is either out of 
tune or purposefully de-tuned for that creepy effect; so keep in mind that the pitches won't line up exactly 
with what you hear on the recording.

  F#                  F                   Ab                  Gm 
e|------10--11-------|------10--11-------|------10--11-------|------10--11-------|
B|---------------11--|---------------11--|---------------11--|---------------11--|
G|--11---------------|--10---------------|--13---------------|--12---------------|
D|-------------------|-------------------|-------------------|-------------------|
A|-------------------|-------------------|-------------------|-------------------|
E|-------------------|-------------------|-------------------|-------------------|

  F#                  F                   Bbsus4
e|------10--11-------|------10--11-------|------10--11--10---|-14--13-11--10-----|
B|---------------11--|---------------11--|--11------------11-|---------------11--|
G|--11---------------|--10---------------|-------------------|-------------------|
D|-------------------|-------------------|-------------------|-------------------|
A|-------------------|-------------------|-------------------|-------------------|
E|-------------------|-------------------|-------------------|-------------------|


[Verse 1]
F#               F       Ab              Gm
I've got a catacomb with fur covered styrofoam
   F#        F              Bbsus4
So come over now and sleep
F#               F     Ab                   Gm
Time isn't here again, wasted thoughts that could've been
    F#        F             Bbsus4
Now we can devise our plan


[Chorus]
F#  F
Day-light
Ab  Gm
Day-light
F#             F            Bbsus4
Daylight won't find us here


[Verse 2]
F#             F         Ab                    Gm
I've got a catacomb with flags that flew fifty years ago
F#             F              Bbsus4
Let sleep overcome your mind
F#              F              Ab       Gm
God isn't safe again, molests trees and chopped down men
   F#        F             Bbsus4
So we must revise our plan


[Chorus]
F#  F
Day-light
Ab  Gm
Day-light
F#             F            Bbsus4
Daylight won't find us here


If you want a tab for the solo, there is already one on UG that is at least 95% accurate.
            

* All the chords provided on here are the property of the respective artist, authors and labels, they are intended strictly for educational purposes,read,view and private study. All the contents are extracted from the internet and we are not getting any responsibility for the content.