Dead On Time


Transposer


             Dead on Time - Brian May

A7  D7 B7

e|------------------------------|
B|------------------------------|
G|------------------------------|
D|--------4-2-(2-2)-------------| (x6)
A|------------4---4-2-4-2-0-----|
E|-2-2--2-----------------(2-2)-|

[Verse 1]
A                                         F#
Fool always jumpin' never happy where you land.

e|----------------------|-------------------------------|
B|----------------------|-------------------------------|
G|----------------------|------------4-4--2-------------|
D|----4-2-(2-2)---------|-----4-2-----------4-2---------|
A|--------4---4320------|---------4-------------4-3-2-0-|
E|----------------(2-2)-|-(2-2)-------------------------|

A                                               F#
Fool got my business make your living where you can.

e|-------------------------------|------------------------------------|
B|-------------------------------|------------------------------------|
G|-------------------------------|----------------4-4-2---------------|
D|------4-2---2-(2-2)------------|---------4-2----------4-2-----------|
A|----------4-------4-3-2-0------|-------------4------------4-2-(0-0)-|
E|---------------------------2-2-|-2-2-2-2----------------------------|

B              F#
Hurry down the highway
B              F#
Hurry down the road
B
Hurry past the people starin'
B
Hurry hurry hurry hurry

[Chorus]
A             E
Leave on time leave on time
D                             Bm       F#
Never got your ticket but you leave on time

e|-------------------------|-----------------------------|
B|-------------------------|-----------------------------|
G|-------------------------|-----------4-4--2------------|
D|---4-2-(2-2)-------------|-----4-2---------4-2---------|
A|-------4---4-3-2-0-------|---------4-----------4-3-2-0-|
E|-------------------(2-2)-|-(2-2)-----------------------|

A             E
Leave on time leave on time
D                             Bm
Gonna get your ticket but you leave on time
A             E
Leave on time leave on time
D                             B         F#
Put it in your pocket but you never can tell

F#
Leave on time leave on time
B7                      F#
Shake that rattle gotta leave on time
F#
Leave on time leave on time
B7                        F#
Fight your battle but you leave on time
F#
Leave on time leave on time
B7
Never got a minute no you never got a minute
B7
No you never never got oh no matter

[Verse 2]
A                                              F#
Fool got no business hangin' round and tellin' lies
A                                      F#
Fool you got no reasons but you got no compromise
B                       F#
Stampin' on the ceilin' hammering on the walls
N.C.
Gotta get out gotta get out gotta get
N.C.
Oh you know I'm goin' crazy

[Chorus]
A             E
Leave on time leave on time
D                       Bm       F#
Gotta get ahead but you leave on time
A             E
Leave on time leave on time
D                           Bm
Gotta head on ahead but you leave on time
A             E
Leave on time leave on time
D                                 B7        F#
You're runnin' in the red but you never can tell

[Guitar Solo] 
(Note: 8m in 4/4,  1m in 2/4)
F# B F#  F# B F# F# B F#  F# B F# B7
A F# A F#
A B D D# E F F#

F# B F#  F# B F#
Honey honey where's my money where's my money
F# B F#  F# B F#
Want to get away want to get away
F# B F#  F# B F#
Leave ya leave ya leave ya

B7  B7
F#
Leave on time leave on time
B7
Gotta get rich gonna leave on time
F#
Leave on time leave on time
B7                                      F#
But you can't take it with you when you leave on time
F#
Leave on time leave on time
B7                               F#
Got to keep yourself alive gotta leave on time
A                   D
Gotta leave on time leave on time
B7
Dead on time

N.C.
You're dead
F#7
            

* All the chords provided on here are the property of the respective artist, authors and labels, they are intended strictly for educational purposes,read,view and private study. All the contents are extracted from the internet and we are not getting any responsibility for the content.