Discodrøv


Transposer


             Am
Det er noen som steller i stand eksplosjoner
det er noen som avlytter telefoner
det er noen som har klokkertro på sterke personer
som samler på skytevåpen og patroner
Som rotter seg sammen i bykjernen
og melder seg frivillig i Heimevernet

e|---------------------------------------------------------------|
B|---------------------5------5----------------------5---5-5-----|
G|--5-5-5-7-5-4------5---7--7-----5-5-5-7-5-4------5---7---------|
D|--------------7--7--------------------------7--7---------------|
A|---------------------------------------------------------------|
E|---------------------------------------------------------------|


F                         G              Am
De sier vi har rett til å leve våre egne liv
F                G        Am
mens alt vi gjør havner i arkiv
F                G        Am
vi pønsjes inn på datamaskiner
F                G            Am
og ender opp som kontrollerte kaniner

F                     G
På discoen blir vi enda dummere
F                     G             Am
for å summe med andre nummere

E                   G
Mens du bare sitter der du er
E                   G
sitter og venter på bedre vær
F                   Am
du pakker deg inn i dine nye klær
F            F#          G          G#
kikker ut av vinduet med sløve øyne
          Am
og tygger discodrøv

e|---------------------------------------------------------------|
B|---------------------5------5----------------------5---5-5-----|
G|--5-5-5-7-5-4------5---7--7-----5-5-5-7-5-4------5---7---------|
D|--------------7--7--------------------------7--7---------------|
A|---------------------------------------------------------------|
E|---------------------------------------------------------------|

F                G         Am
Du leser horoskop, tror på stjernemystikk
F                G         Am
du bekjenner deg ingenting om hjernefysikk, men
F                G         Am
snart legges vi innpå en hjerneklinikk
F                G         Am
hvor de gransker våre hjerner med datateknikk 


E                   G
Mens du bare sitter der du er
E                   G
sitter og venter på bedre vær
F                   Am
du pakker deg inn i dine nye klær
F            F#          G          G#
kikker ut av vinduet med sløve øyne
          Am
og tygger discodrøv

e|---------------------------------------------------------------|
B|---------------------5------5----------------------5---5-5-----|
G|--5-5-5-7-5-4------5---7--7-----5-5-5-7-5-4------5---7---------|
D|--------------7--7--------------------------7--7---------------|
A|---------------------------------------------------------------|
E|---------------------------------------------------------------|

Am
Det er noen som steller i stand eksplosjoner
det er noen som avlytter telefoner
det er noen som har klokketro på sterke personer
som samler på skytevåpen og patroner
F                      G
Som rotter seg sammen i bykjernen
F                      G                Am
og melder seg frivillig i Heimevernet

E                   G
Mens du bare sitter der du er
E                   G
sitter og venter på bedre vær
F                   Am
du pakker deg inn i dine nye klær
F            F#          G          G#
kikker ut av vinduet med sløve øyne
          Am
og tygger discodrøv

e|---------------------------------------------------------------|
B|---------------------5------5----------------------5---5-5-----|
G|--5-5-5-7-5-4------5---7--7-----5-5-5-7-5-4------5---7---------|
D|--------------7--7--------------------------7--7---------------|
A|---------------------------------------------------------------|
E|---------------------------------------------------------------|

Am
Discodrøv (x17)
            

* All the chords provided on here are the property of the respective artist, authors and labels, they are intended strictly for educational purposes,read,view and private study. All the contents are extracted from the internet and we are not getting any responsibility for the content.