Dont Stop Me Now


Transposer


             Band - Queen
Song - Dont Stop Me Now
Album - Jazz
Tuning - Standard (E,A,D,G,B,E)

   F                      Am7           Dm7
Tonight, I'm gonna have myself a real good time
        Gm7 C7         F              F7    Bb
I feel alive, and the world, turning inside out, yeah
     Gm7               D7           Gm    Dm  Gm Gm7
and floating around in ecstasy, so don't stop me now
 Gm    Dm  Gm                                C7
Don't stop me 'cause I'm having a good time, having a good time.
       F                                Am7           Dm7
I'm a shooting star leaping through the sky, like a tiger
              Gm7         C7
defying the laws of grafity
       F                  Am                Dm
I'm a racing car, passing by, like lady Godiva
         Gm         C7                   F
I'm gonna go, go, go,there's no stopping me
     F7                  Bb         Gm7
I'm burning through the sky, yeah, 200 degrees,
                D7                   Gm
that's why they call me Mister Fahrenheit
     D7                         Gm7
I'm travelling at the speed of light.
                Bb                       C
I wanna make a supersonic man out of you

 F     Gm  F  Dm                      Gm7           C7
Don't stop me now, I'm having such a good time, I'm having a ball
 F     Gm  F  Dm                       Gm7             D7
Don't stop me now, if you wanna have a good time, just give me a call
Gm    Dm   Gm7
Don't stop me cause I'm having a good time
Gm    Dm   Gm7                               C7                    Eb
Don't stop me, yes I'm having a good time, I don't want to stop at all

[Main Solo](adapted from Mobscene96, just a single correction)
E|---------------------|-------------------------|-------------------------|
B|---------------------|-------------------------|--------------------11---|
G|--12b----12b(12)--10-|--12b---12b---12b(12) 10-|--12--10--9--10---X------|
D|---------------------|-------------------------|----------------X--------|
A|---------------------|-------------------------|-------------------------|
E|---------------------|-------------------------|-------------------------|

E|------------------------------|----------------------------|
B|--10--------------------------|----------------------------|
G|------X--12--X--10------X-12b-|--12b--12b--12b--12b(12)----|
D|----------------------X-------|-------------------------10-|
A|--------------------X---------|----------------------------|
E|------------------------------|----------------------------|

E|-------------------------------------------------|
B|------11b-----11b(11)---10--11b--11b--11b(11)--10|
G|----X--------------------------------------------|
D|--X----------------------------------------------|
A|-------------------------------------------------|
E|-------------------------------------------------|

E|-------------------------------|-----------------------------------|
B|------11-10------10------------|--11--10--X------------------------|
G|----X--------12--------------X-|-------------12---10-------X-12b---|
D|--X------------------------X---|-------------------------X---------|
A|-------------------------X-----|-----------------------X-----------|
E|-------------------------------|-----------------------------------|

E|-------------------------------------|
B|-------------------------------------|
G|--12-12b(12)----12b(12)---12b(12)-10-| Let the last note ring
D|-------------------------------------|
A|-------------------------------------|
E|-------------------------------------|

(Behind the vocals, freely:)
E|--------------------------------------------------------------------|
B|--------------------------------------------------------------------|
G|--------------------------------------------------------------------| 
D|--5b(5)b-3----3--------12b--10-10-12b-10---10---12b--10-10~~~~------|
A|-----------5--------------------------------------------------------|
E|--------------------------------------------------------------------|

... travelling at the speed of light
E|-------------------------------------|
B|--13b---13b----13b---13b---13b-------|
G|-------------------------------------|
D|-------------------------------------|
A|-------------------------------------|
E|-------------------------------------|

supersonic man..
E|------------------------------------------|
B|--13---13----13---13---13---13---13---13--|
G|--12b--12b---12b--12b--12b--12b--12b--12b-|
D|------------------------------------------|
A|------------------------------------------|
E|------------------------------------------|
            

* All the chords provided on here are the property of the respective artist, authors and labels, they are intended strictly for educational purposes,read,view and private study. All the contents are extracted from the internet and we are not getting any responsibility for the content.