Dos Y Siete


Transposer


             Hay muchas versiones de esta cancion, Vicente toca unas diferentes tambien...

[Acordes]

e|--5--|--3--|-----|-----|
B|--7--|--3--|--8--|--5--|
G|--6--|--4--|--7--|--6--|
D|--7--|--5--|--9--|--7--|
A|--5--|--5--|--7--|--7--|
E|--5--|--3--|--7--|--5--|
  Dmaj7   G    Em7    A

El ritmo de los versos suena así:

e|---5-------5-------5-------5-|---5---------------5---------|
B|---7---5-------7-------5-----|---7---5---5---7-------5---5-|
G|---6---6-------6-------6-----|---6---6-------6-------6-----|
D|-------7-------7-------7-----|-------7-------7-------7-----|
A|-5-------------5-------------|-5-------------5-------------|
E|-------5---------------5-----|-------5---------------5-----|

Aquí empieza la canción
[Intro]
          D6/9 
e|-----------------------------------|------------------------------------|
B|----10\-5---5---5h7--7--5-5------5-|----10\-5---5---5h7--7--5-5------5\-|
G|----9-\-4---4---4----4--4-4h6p4--4-|----9-\-4---4---4----4--4-4h6p4--4\-|
D|-0--------0-----0------------------|-0--------0-----0-------------------|
A|------------------------0-0--------|------------------------0-0---------|
E|-----------------------------------|------------------------------------|

   G           Gadd9              Em7            A7sus4  A7
e|-----------------------------------------------------------------|
B|-------0-------------------------------3---------3-----2---------|
G|---0-------0---2-------2---------0---------0-------0-------0-----|
D|-----0-------0-----0-------0-------2-2-------2-------2-------2---|
A|-----------------------------0-----------------0-0---------------|
E|-3-------------3-----3---------3-0-------------------------------|

e|-----------------------------------|------------------------------------|
B|----10\-5---5---5h7--7--5-5------5-|----10\-5---5---5h7--7--5-5------5\-|
G|----9-\-4---4---4----4--4-4h6p4--4-|----9-\-4---4---4----4--4-4h6p4--4\-|
D|-0--------0-----0------------------|-0--------0-----0-------------------|
A|------------------------0-0--------|------------------------0-0---------|
E|-----------------------------------|------------------------------------|
Sé que  ... te quedaras                Pero           eras

   G           Gadd9              Em7             A7
e|-------------------------------------------------0------|
B|-------0-------------------------------3---------2------|
G|---0-------0---2-------2---------0---------0-----0------|
D|-----0-------0-----0-------0-------2-2-------2---2------|
A|-----------------------------0-------------------0------|
E|-3-------------3-----3-----------0----------------------|
 Y yo            porque       Ha venido               la soledad

[Verso 1]

Dmaj7
Mira como nos enamoramos mucho más lo que nos deseamos
Súbete a mi fe
     G
Y es que no importa que yo viva otro universo
             Em7                   A            Dmaj7
Si es que un día puedo ser la luna, alrededor de ti

G     Em7   A


[Coro]

Dmaj7
  Hace tiempo que no estás a mi lado
                   G
Y yo sigo buscándote
Dmaj7
  El amor no se ha olvidado
                   G
Y yo sigo pensándote
Dmaj7
Hace tiempo que no estás a mi lado
                   G
Y yo sigo buscándote
Dmaj7
El amor no se ha olvidado
                   G
Y yo sigo buscándote
(Aunque no estés a mi lado)


[Verso 2]

Dmaj7
De tu presencia me aprehendió mi fantasía
Y hoy todo se resume en volver a verte, amor
G
  Que con lo que más yo cuento es con tener tu corazón
Em7                     A                    Dmaj7
  Y acelera mis latidos, tu mirada en mi camino


[Intro riff]
Dejé que la vida me enseñara a ser feliz    
                                             G
Dejé que la vida me enseñara lo que es ser real
                             Dmaj7
Y fui a parar donde nos entendíamos
                      
Donde todo era perfecto

G       Em7   A   


[Coro]

Dmaj7
  Hace tiempo que no estás a mi lado
                   G
Y yo sigo buscándote
Dmaj7
  El amor no se ha olvidado
                   G
Y yo sigo pensándote
Dmaj7
  Hace tiempo que no estás a mi lado
                   G
Y yo sigo buscándote
Dmaj7
  El amor no se ha olvidado
                   G
Y yo sigo pensándote

   Dmaj7
Tu sabes que yo sigo buscándote
                  G
Y yo sigo buscándote
   Dmaj7
Tu sabes que yo sigo buscándote
                  G
Y yo sigo pensándote
   Dmaj7
Tu sabes que yo sigo buscándote
                  G
Y yo sigo buscándote
   Dmaj7
Tu sabes que yo sigo buscándote
                  G
Y yo sigo pensándote

*****************************
/|  Slide up
\|  Slide Down
h|  Hammer on
p|  Pull off
*****************************
            

* All the chords provided on here are the property of the respective artist, authors and labels, they are intended strictly for educational purposes,read,view and private study. All the contents are extracted from the internet and we are not getting any responsibility for the content.