Double Negative


Transposer


             Artist: Vic Godard and the Subway Sect
Song: "Double Negative"
Album: A Retrospective 1977-81 (1984)



Tuning: Standard



INTRO:
Guitar I
e|------------------------------------------------------------------------------------------------|
B|-------------------------------------------------------------------------------------------5----|
G|-------------------------------------------------------------------------------------------5----|
D|-------------------------------------------------------------------------------------5-h7-------|
A|------------------------------------------------------------------------------------------------|
E|------------------------------------------------------------------------------------------------|
+
e|------------------------------------------------------------------------------------------------||
B|-7-----------7b----------7-----------------------5-----------5-----7-----------7-----------5----||
G|-7-----------7b----------7-----------------------5-----------5-----7-----------7-----------5----|| x 3
D|-------------------------------------------------------7-----------------------------5-h7-------||
A|------------------------------------------------------------------------------------------------||
E|------------------------------------------------------------------------------------------------||
+
e|------------------------------------------------------------------------------------------------|
B|-7-----------7b----------7-----------------------5-----------5-----7-----------7----------------|
G|-7-----------7b----------7-----------------------5-----------5-----7-----------7----------------|
D|-------------------------------------------------------7----------------------------------------|
A|------------------------------------------------------------------------------------------------|
E|------------------------------------------------------------------------------------------------|
|                                                                                                 |
|                                                                                                 |
Guitar II                                                                                         |
e|------------------------------------------------------------------------------------------------|
B|------------------------------------------------------------------------------------------------|
G|------------------------------------------------------------------------------------------------|
D|------------------------------------------------------------------------------------------------|
A|------------------------------------------------------------------------------------------------|
E|------------------------------------------------------------------------------------------------|
+
e|------------------------------------------------------------------------------------------------||
B|-7-----------8-----------7-----------7-----------5-----5-----x-----7-----------7-----------5----||
G|-7-----------7-----------7-----------7-----------5-----5-----x-----7-----------7-----5-----5----|| x 3
D|-7-----------7-----------7-----------7-----------5-----5-----x-----7-----------7-----5-h7--5----||
A|-5-----------5-----------5-----------5-----------3-----3-----x-----5-----------5----------------||
E|------------------------------------------------------------------------------------------------||
+
e|------------------------------------------------------------------------------------------------|
B|-7-----------8-----------7-----------7-----------5-----5-----x-----7-----------7----------------|
G|-7-----------7-----------7-----------7-----------5-----5-----x-----7-----------7----------------|
D|-7-----------7-----------7-----------7-----------5-----5-----x-----7-----------7----------------|
A|-5-----------5-----------5-----------5-----------3-----3-----x-----5-----------5----------------|
E|------------------------------------------------------------------------------------------------|



TBC



SONG STRUCTURE:

TBA



That's it. Please leave comments or suggestions, corrections, requests, etc.
Cheers!
-Bennyshambles78-
            

* All the chords provided on here are the property of the respective artist, authors and labels, they are intended strictly for educational purposes,read,view and private study. All the contents are extracted from the internet and we are not getting any responsibility for the content.