Dream Come True


Transposer


             [Intro]
e|---------------------------------------------------------------------------|
B|-----------------9-----10----10^9-----------7------9-----------------------|
G|--------6--------9-----9----------9---------7------9---6---6---------------|
D|-------------------------------------11----------------------7-------------|
A|-----------3--3-----9-----9--------------5----0--7---0---0-----7-----------|
E|---0^5---------------------------------------------------------------------|

[Riff 1]
e|---------------------------------------------------------------------------------| 
B|--12^14--14--12--14--12^14--14--12--14--14/17--12^14--14--12--14---------------12|
G|-----------------------------------------------------------------13-13--14-14----|  x2
D|---------------------------------------------------------------------------------|
A|---------------------------------------------------------------------------------|
E|---------------------------------------------------------------------------------|


[Verse 1]
A           E     F#m
I’m sailing on the ocean 
     D        E     A
On a mountain magic ark 
A               E      F#m
And i’m looking for an island 
      D        E     A
Where I can make a start 
      A         E      F#m
Now I live high up the mountains
      D     E     A 
In a wooden flat beside this waterfall 
       A      E      F#m
With a monkey called Napoleon 
    D    E        A 
For some internal cause 

          E E E
Ohh Aaahhh 

Let this dream come true 

[Solo 1]
e|---------------------------------------------------------------------------|
B|---------------------------------------------------------------------------|
G|---------------------------------------------------------------------------|
D|--9/11--9--7--9--7-------------7--9b10--7--7~~-----------------------------|
A|--------------------9--7--7^9---------------7^9--7-------------------------|
E|----------------------------------------------------7^9--5-----------------|

e|---------------------------------------------------------------------------|
B|------------------------13b14------15--14--12--10-----------10^12--10------|
G|--------9------9--9^11~~---------------------------9^11--9-----------------|
D|--7/11-----11--------------------------------------------------------------|
A|---------------------------------------------------------------------------|
E|---------------------------------------------------------------------------|

[Verse 2]
        A         E           F#m
So i’ve made some friends and lovers 
         D            E           A 
And they live with me outside the gloom 
            A       E           F#m
Though it’s far too soon to say goodbye
   D                E           A  
To Napoleon and the rest of the crew 

       A         E         F#m
Yeah I know that I’ve been running 
      D         E    A  
And I know that everything’s not fine 
       A       E     F#m
When I wake up and I notice 
D           E           A  
What’s been flooding my mind 
          E E E
Ohh Aaahhh 
N.C
Let this dream come true 

[Riff 1]
e|---------------------------------------------------------------------------------| 
B|--12^14--14--12--14--12^14--14--12--14--14/17--12^14--14--12--14---------------12|
G|-----------------------------------------------------------------13-13--14-14----|  x2
D|---------------------------------------------------------------------------------|
A|---------------------------------------------------------------------------------|
E|---------------------------------------------------------------------------------| 
Oh oh oh, let it be true 
No no no I’ll make it through 
But on bumpy roads 

A  E  F#m D  E  A x5
Let this dream come true x5


************************************
| ^   Hammer-on/Pull-off
| /   Slide up
| b   Bend
| ~   Vibrato
************************************
            

* All the chords provided on here are the property of the respective artist, authors and labels, they are intended strictly for educational purposes,read,view and private study. All the contents are extracted from the internet and we are not getting any responsibility for the content.