Dry And Brittle


Transposer


             Song: Dry and Brittle
Band: They Came Running
Album: Sound on the Radio
website: www.theycamerunning.com



Am         G/B                        F
Take the world but give me God's love
Am                 G/B                F
'Cause I'll find rest when I'm dead
Am                   G/B                       F
'Cause He's the sweetest song that I have ever heard
            Am      G/B       F
It plays loud inside my head

Turn: Am         G/B                        F

Am         G/B                        F
I long for You just like the ocean breeze
                           Am         G/B               F
'Cause You're the wind that fills my sails
Am                  G/B                 F
My senses are numbed by the autumn scene
             Am            G/B                 F
Like the leaves that paint the ground

          Am  G/B    F
You are ho -       ly
          Am  G/B    F
You are ho -       ly

C   Dm    Am                  G
Wh  -    oa, my eyes are on the sky
C   Dm    Am         G
Wh  -    oa, arms opened wide
C   Dm    Am           G
Wh  -    oa, rain on me tonight
C                  Dm    Am          G
'Cause You are holy

Turn: Am         G/B                        F


Verse 2: *same chords* I long for you just like a precious stone
'Cause You're the jewel that captures me
And who could have loved with a love so bold
To give His son up to die for me

Chorus: *same chords*Whoa, my eyes are on the sky
Whoa, arms opened wide
Whoa, rain on me tonight
'Cause You are holy

Bridge: (listen for timing)
Am
     I'm just dry and brittle
F
      Looking for the rain
Bdim                                              Dm           Am     G
      So open up the heavens and revive me again

Whoa, my eyes are on the sky
Whoa, arms opened wide
Whoa, rain on me tonight
'Cause You are holy



Lead tab:

Main riff: 

e|---------7---12-------|-15-----15-----|---------7---12-------|---------------------|
B|---0---8--------13----|----12------13-|---0---8--------13----|---------13-12-------|
G|-5---5-------------14-|---------------|-5---5-------------14-|-9-10-12-------12--9-|
D|-----------------------------------------------------------------------------------|
A|-----------------------------------------------------------------------------------|
E|-----------------------------------------------------------------------------------|

Verse (tremolo picking w/ long, tapey delay)
      tr
e|-19-------12  (x2)

Bridge riff (on the second half):
e|---8---8---8---8---8--8----8---8-|13--13--13--13--13--13--13--13--|
B|12--12--12--12--12--12--12--12--|--17--17--17--17--17--17--17--17-|
G|------------------------------------------------------------------|
D|------------------------------------------------------------------|
A|------------------------------------------------------------------|
E|------------------------------------------------------------------|

*drone the high e on top of the melody on the B string*
e|0-------0---0----0-----0----0---0-------0---0---0|
B|5-------6---8----3-----1---13--12------13--12--13|
            

* All the chords provided on here are the property of the respective artist, authors and labels, they are intended strictly for educational purposes,read,view and private study. All the contents are extracted from the internet and we are not getting any responsibility for the content.