Easy


Transposer


             (Strum once for each chord)


[Intro]

Dm Dm Dm Bb Am

Dm Dm Dm Bb Am

[Verse 1]
Dm    Dm
Easy, easy
Dm
Pull out your heart
             Bb   Am
To make the being alone
Dm    Dm
Easy, easy
Dm
Pull out your heart
             Bb   Am
To make the being alone
Dm Am Dm  F
Easy, easy


[Interlude]

Dm Dm F Bb Am
Dm Dm Dm F Bb Am

e|---------------|---------------|
B|---------------|---------------|
G|---------------|---------------|
D|--0--3-----3---|--0--3-----3---|
A|--------3------|--------3------|
E|---------------|---------------|


[Verse 2]
Dm    Dm
Easy, easy
Dm               C
  You break the bridle to make
Bb     Am
Losing control
Dm    Dm
Easy, easy
Dm
 Crushed what you're holding
       Bb       Am
So you can say letting go is
Dm Am Dm
Easy, easy

[Interlude]

Dm Dm F Bb Am
Dm Dm Dm F Bb Am

e|---------------|---------------|
B|---------------|---------------|
G|---------------|---------------|
D|--0--3-----3---|--0--3-----3---|
A|--------3------|--------3------|
E|---------------|---------------|


[Verse 3]

Dm    Dm
Easy, easy
Dm               C
Burn all your things
             Bb      Am
To make the fight to forget
Dm   F    Dm
Easy, oh, easy
Dm       
Burn all your things
             Bb      Am
To make the fight to forget
Dm
Easy


[Interlude]

Dm Dm C Bb Am
Dm Dm Dm F Bb Am
Dm Dm C Bb Am
Dm Dm Dm F Bb Am

e|---------------|---------------|
B|---------------|---------------|
G|---------------|---------------|
D|--0--3-----3---|--0--3-----3---|
A|--------3------|--------3------|
E|---------------|---------------|


[Verse 1]

Dm    Dm
Easy, easy
Dm
Pull out your heart
             Bb   Am
To make the being alone
Dm    Dm
Easy, easy
Dm
Pull out your heart
             Bb   Am
To make the being alone
Dm Am Dm  F
Easy, easy

Dm Dm Dm Dm Dm
            

* All the chords provided on here are the property of the respective artist, authors and labels, they are intended strictly for educational purposes,read,view and private study. All the contents are extracted from the internet and we are not getting any responsibility for the content.