Eden Is Burning


Transposer


             -------------------------------------------------------------------------------
                             Eden Is Burning-John Mellencamp
-------------------------------------------------------------------------------
Tabbed by:Nick V.
E-mail:[email protected]

From 1997's "John Mellencamp"

Tuning:EADGBE

Capo II 


  Em  C  D  G  Em7      
e|-0--0--2--3--0-------------------------------------------------------------|
B|-0--1--3--3--2-------------------------------------------------------------|
G|-0--0--2--0--0-------------------------------------------------------------|
D|-2--2--0--0--3-------------------------------------------------------------|
A|-2--3--0--2--x-------------------------------------------------------------|
E|-0--x--x--3--0-------------------------------------------------------------|


Intro:

Em D (5x)

e|-----------0-0-------------------------------------------------------------|
B|-----3--5--3-3--------3--5--3----------------------------------------------|
G|---0-------0-0------0----0--0----------------------------------------------|
D|-4---------2-2----4--------------------------------------------------------|
A|-----------x-x-------------------------------------------------------------|
E|-----------0-0-------------------------------------------------------------|


[Fig. #1]

e|-7-7-7-7-7--5--3h5-------------7-7-7-7-7--5--3h5---------------------------|
B|---------------------7br--5-----------------------7br--5-------------------|
G|---------------------------------------------------------------------------|
D|---------------------------------------------------------------------------|
A|---------------------------------------------------------------------------|
E|---------------------------------------------------------------------------|


Em                           D
Diane and Jack went to the movies
Em                          D
They went to see Richard Pryor
Em                           D
Screamin' on his knees for his lover
                        C            D
How could have I been wrong about you?
                      C                D 
How could I have been so wrong about you?

G             D      G               D
Eden is burning, I can see it from my window
G                   D
Better take it to the water
          Em                      D
Eden is burning yeah, yeah, yeah, yeah
          Em                      D
Eden is burning yeah, yeah, yeah, yeah


Em  D (3x)

[Fig. #1]


Em                            D
Thinking of Havana, eating cream and bananas
Em                      D
You and me in the sunshine
                      C             D
How could have I been wrong about you?
                     C               D
How could I have been so wrong about you?


G             D      G               D
Eden is burning, I can see it from my window
G                   D
Better take it to the water
          Em                      D
Eden is burning yeah, yeah, yeah, yeah
          Em                      D
Eden is burning yeah, yeah, yeah, yeah


Em D (x3)

[Fig. #1]

                      C            D
How could have I been wrong about you?
                       C              D
How could I have been so wrong about you?
                   Em  D
With love on our side
                   Em   D
With love on our side


Em D (x3)

[Fig. #1]


Em                          D
Here's the masquerade of our living
Em                           D
Well, I hope it makes you feel better
Em                      D
It's for our own protection
                       C           D
I thought we were forever, me and you
            C                      D
But nothin's forever, I guess it's true


G             D      G               D
Eden is burning, I can see it from my window
G                   D
Better take it to the water
          Em                      D
Eden is burning yeah, yeah, yeah, yeah
          Em                      D
Eden is burning yeah, yeah, yeah, yeah


G             D      G               D
Eden is burning, I can see it from my window
G                   D
Better take it to the water
          Em                      D
Eden is burning yeah, yeah, yeah, yeah
          Em                      D
Eden is burning yeah, yeah, yeah, yeah


Questions, comments, insults...BlindTerry333
            

* All the chords provided on here are the property of the respective artist, authors and labels, they are intended strictly for educational purposes,read,view and private study. All the contents are extracted from the internet and we are not getting any responsibility for the content.