El Rey


Transposer


             [Intro]

e|----0-----2-----3-----0-----3-----0-----3-----0-----|
B|----2-----3-----5-----2-----5-----2-----5-----2-----|
G|----------------------------------------------------|
D|----------------------------------------------------|
A|----------------------------------------------------|
E|----------------0-----------0-----------0-----------|

e|-----0-----0-----3-----0-----3-----0------------------0-----0----|
B|-----2-----2-----5-----2-----5-----2-----2------2-----2-----2----|
G|-----------------------------------------0------0----------------|
D|-----------------------------------------2------2----------------|
A|-----------------0-----------------0-----------------------------|
E|-----------------------------0------------------------0----------|


e|-----3-----0-----5-----5----------2-----||
B|-----5-----2-----7-----3---------3------||
G|--------------------------------2-------||
D|-------------------------------0--------||
A|-----0-----------------0-----0----------||
E|-----------------0----------------------||

[Verse]
D
Yo sé bien que estoy afuera pero el día que yo me muera
                       A7
sé que tendrás que llorar (llorar y llorar llorar y llorar)

Dirás que no me quisiste pero vas a estar muy triste
                   D
y así te vas a quedar.

[Chorus]
       G
Con dinero y sin dinero hago siempre lo que quiero
                    A7
y mi palabra es la ley.

No tengo trono ni reina ni nadie que me comprenda
                     D
pero sigo siendo el rey.

[Verse]
                    D
Una piedra en el camino me enseño que mi destino
               A7
era rodar y rodar(rodar y rodar rodar y rodar).

Tambien me dijo un arriero que no hay que llegar primero
                       D
pero hay que saber llegar.

[Chorus]
       G
Con dinero y sin dinero hago siempre lo que quiero
                    A7
y mi palabra es la ley.

No tengo trono ni reina ni nadie que me comprenda
                     D
pero sigo siendo el rey.

[Outro]

e|----0-----2-----3-----0-----3-----0-----3-----0-----|
B|----2-----3-----5-----2-----5-----2-----5-----2-----|
G|----------------------------------------------------|
D|----------------------------------------------------|
A|----------------------------------------------------|
E|----------------0-----------0-----------0-----------|

e|-----0-----0-----3-----0-----3-----0------------------0-----0----|
B|-----2-----2-----5-----2-----5-----2-----2------2-----2-----2----|
G|-----------------------------------------0------0----------------|
D|-----------------------------------------2------2----------------|
A|-----------------0-----------------0-----------------------------|
E|-----------------------------0------------------------0----------|


e|-----3-----0-----5-----5-----||
B|-----5-----2-----7-----3-----||
G|-----------------------------||
D|-----------------------------||
A|-----0-----------------0-----||
E|-----------------0-----------||

D   A7   D
            

* All the chords provided on here are the property of the respective artist, authors and labels, they are intended strictly for educational purposes,read,view and private study. All the contents are extracted from the internet and we are not getting any responsibility for the content.