Epoca De Oro


Transposer


             Weno ps ai les va esta canción que esta muy buen
Y subí otra porque las otras estan muy feas.
Esta es mi primer transcripción Espero que les guste :)

e |--------------------------------------------|
B |-3--3--3--3-4-6-4-3-------------------------|
G |-3--3--3--3-5-7-5-3-2--3-2-0-0-0-0----------|
D |---3--3--3------------------1-1-1-3-1-0-3---|
A |--------------------------------------------|
E |--------------------------------------------|

e |--------------------------------------------|
B |----------------4-3---3---------------------|
G |--0-3-2-2h3-3---5-3-2-3--0------------------|
D |-3------------3-----------3-1-0-------------|
A |--------------------------------3-----------|
E |--------------------------------------------|

 A#                             F7
Hoy me trasnporté a la época de oro
      D#                        A#
donde era tan común llevar serenata
A#                        F7
una voz una guitarra era todo
        D#                         A#
lo que se necesitaba pa qe una ingrata
    D#      A#          F7       A#
callera rendida y nos diera su amor
 A#                                 F7
hoy viajé a los tiempos de Pedro Infante
      D#                           A#
a buscar algún detalle que te conmueva
  A#                                F7
siempre he sido un tipo con mucha suerte
        D#                               A#
por si no lo crees aquí te traigo una prueba
      D#        A#     F7       A#
chorreada chorreada abre tu balcón
 D7                            Gm
para la trompita ya y dame un beso
                D7               Gm
tu sabes que de eso tengo tentación
 D7                            Gm
hoy te quiero confesar en mis versos
                D#              D7
que tu eres la reina de mi corazón
D#             F7       A#
y de mi debilidad la razón
D7                     Gm
amorcito corazón yo te amo
            D7               Gm
si vivo 100 años esos te amaré
 D7                        Gm
solo quiero caminar de tu mano
               D#                D7
y con mis canciones te conquistaré
(y además)
 D#                  F7        A#
mis quinsenas completitas traeré
e |--------------------------------------------|
B |-3--3--3--3-4-6-4-3-------------------------|
G |-3--3--3--3-5-7-5-3-2--3-2-0-0-0-0----------|
D |---3--3--3------------------1-1-1-3-1-0-3---|
A |--------------------------------------------|
E |--------------------------------------------|

(chikita como vez..? veda qe si!!)

e |--------------------------------------------|
B |----------------4-3---3---------------------|
G |--0-3-2-2h3-3---5-3-2-3--0------------------|
D |-3------------3-----------3-1-0-------------|
A |--------------------------------3-----------|
E |--------------------------------------------|

 D7                            Gm
para la trompita ya y dame un beso
                D7               Gm
tu sabes que de eso tengo tentación
 D7                            Gm
hoy te quiero confesar en mis versos
                D#              D7
que tu eres la reina de mi corazón
D#             F7       A#
y de mi debilidad la razón
D7                     Gm
amorcito corazón yo te amo
            D7               Gm
si vivo 100 años esos te amaré
 D7                        Gm
solo quiero caminar de tu mano
               D#                D7
y con mis canciones te conquistaré
(y además)
 D#                  F7        A#
mis quinsenas completitas traeré
 D#                  F7        A#
mis quinsenas completitas traeré

e |------------------------6----|
B |-------------------3---6-----|
G |-0-0-0-0-2-3-2-0---3---------|
D |-----------------3-3---------|
A |-----------------------------|
E |-----------------------------|

...y los pisadas de los tonos son así:
    A#     F7     D#      D7      Gm
e |-6------x------8-------0-------3--|
B |-6------6------8-------3-------3--|
G |-7------8------8-------5-------3--|
D |-8------7------8-------4-------5--|
A |--------8--------------5-------5--|
E |-------------------------------3--|

El Rasgueo es asi y les pondré el ejemplo con A#
    v ^ ^ v ^ ^
e |-6-6-6-6-6-6---------|
B |-6-6-6-6-6-6---------|
G |-7-----7-------------|
D |-8-----8-------------|
A |---------------------|
E |---------------------|

v = Rasgueo hacia abajo
^ = Rasgueo hacia arriba

*La canción es de 3 tiempos.
*También la pueden tocar como corrido


Arriba Álamos Y Obregon Sonora, los cuates y Sinaloa
Cualquier duda mandenme un mensaje a mi correo es:
[email protected]
            

* All the chords provided on here are the property of the respective artist, authors and labels, they are intended strictly for educational purposes,read,view and private study. All the contents are extracted from the internet and we are not getting any responsibility for the content.