Even Cowgirls Get The Blues


Transposer


             Standard Tuning EADGBe 

No Capo

Main riff: 

e|----7----------------------------------|
B|-9~----9-7----7------------------------|
G|-----------8~---8-7-6~-6-6h7h8---------|
D|-------------------------------6~--4/--|
A|---------------------------------------|
E|---------------------------------------|

e|----7-----------------------------|
B|-9~----9-7----7-------------------|
G|-----------8~---8-7-6~-6-6h7h8----|
D|-------------------------------6~-|
A|----------------------------------|
E|----------------------------------|

e|----7----------------------------------|
B|-9~----9-7----7------------------------|
G|-----------8~---8-7-6~-6-6h7h8---------|
D|-------------------------------6~--4/--|
A|---------------------------------------|
E|---------------------------------------|

e|----7----------------9-9b--9-7----------|
B|-9~----9-7----7----------------9~--7-9~-|
G|-----------8~---8-7-6-------------------|
D|----------------------------------------|
A|----------------------------------------|
E|----------------------------------------|


Intro: G#m  B  F#  G#m  (x4)

Verse 1: 
  G#m           F#            E          B
I haven't seen Sandy, Angry Johnny, or Mary
  G#m             F#                   E               B
I heard they got married, might have had a couple of babies
     G#m           F#            E            B
They traded their memories for Fairview and Acres,
     G#m              F#          E                B        
They never played no pinball or get out past the breakers

Chorus 1:
    G#m B        F#  G#m
But not me pretty baby,
  G#m             B               F#               G#m
I still love Tom Petty songs and driving old men crazy
    G#m  B            F#       G#m       
And not while little Eden is waiting
   G#m             B             F#              G#m  
So you sing me a slow song, and I'll drive you crazy, tonight...

Verse 2: 
    G#m    F#                     E             B
But all I want is for you to be all right and satisfied
G#m           F#                  E           B 
Brothers and sisters, know that any time or late at night
       G#m          F#           E                B
If you call I will answer, I'm open ears though tired eyes
          G#m                F#          E    B
While the world closed it's arms on us now

Chorus 2:
      G#m         B              F# G#m 
Can I get a hung witness, pretty baby?
  G#m             B               F#               G#m
I still love Tom Petty songs and driving old men crazy
    G#m  B            F#       G#m
And not while little Eden is waiting
   G#m            B              F#              G#m 
So you sing me a slow song, and I'll drive you crazy, tonight...

Verse 3: 
         G#m      F#         E           B
Tonight, alright, alright, alright, alright
         G#m      F#         E           B
Tonight, alright, alright, all night, all night......                                   
          G#m      F#         E           B
There's a party tonight and I say it's alright,
          G#m             F#             E            G#m
Tell your papa you'll be home when the good feeling dies...

Chorus 3:
    G#m B        F#  G#m
But not me pretty baby,
  G#m             B               F#               G#m
I still love Tom Petty songs and driving old men crazy
    G#m  B            F#       G#m       
And not while little Eden is waiting
   G#m             B             F#              G#m  
So you sing me a slow song, and I'll drive you crazy, tonight...

Outro:
E       B    F#     E       E
Tonight, all right all right,
B   F#          E E
All right, all right
B        F#   E
Tonight! Hey! For tonight, tonight
    B              F#           G#m  F#  E   B   G#m  F#  E   B  
And I'll drive you crazy tonight


(end)
            

* All the chords provided on here are the property of the respective artist, authors and labels, they are intended strictly for educational purposes,read,view and private study. All the contents are extracted from the internet and we are not getting any responsibility for the content.