Even Then


Transposer


             Capo 1

piano intro arranged for guitar.....its pretty close

e|-3-2-3-------------3-2-3------------|
B|---------------0--------------------|
G|-------------2------------------0---|
D|-----------0------------------2-----|
A|----------------------------2-------|
E|---------3----------------0---------|

e|---------------------------|
B|3--5--7--5--3--0-----------|
G|------------------3--------|
D|---------------------------|
A|---------------------------|
E|---------------------------|
            

* All the chords provided on here are the property of the respective artist, authors and labels, they are intended strictly for educational purposes,read,view and private study. All the contents are extracted from the internet and we are not getting any responsibility for the content.