Faster


Transposer


             Title: Faster

Artist: Within Temptation

Tuning: DADGBE

Song uses power chords on guitar, however, the synth in the background defines the chord types.

Original was played on a 7 string guitar. Simplified for a guitar with drop D tuning.


[Intro]

  Bm                         F#m
e|--------------------------|--------------------------|
B|--------------------------|--------------------------|
G|--------------------------|--------------------------|
D|--------------------------|--------------------------|
A|--2--2--4--2--4--5--4-----|--------4-----4--5--4-----|
D|-----------------------4--|-(4)-4-----4-----------0--|

  D                          F#m
e|--------------------------|--------------------------|
B|--------------------------|--------------------------|
G|--------------------------|--------------------------|
D|--------------------------|--------------------------|
A|--------4-----4--5--4-----|--------4--5--7--5--4-----|
D|-(0)-0-----0-----------4--|-(4)-4--------------------|


Bm F#m D F#m x4


[Verse 1]

         Bm               A               E
I can't sleep 'cause it's burning deep inside
          Bm       A              E
Like gasoline on a fire running wild
        Bm              A               E
No more fear 'cause I'm getting closer now
      Bm        A           E      D5 F#5
So unreal but I like it anyhow


[Pre-Chorus]

         Bm                 A                     E
I go faster and faster and faster and faster and faster and faster and faster


[Chorus]

N.C.        Bm      A              E       E5 D5   D5 F#5
And I can't live in a fairytale of lies
              Bm          A                     E       E5 D5   D5 F#5
And I can't hide from the feeling 'cause it's right
          Bm                   A                     E       E5 D5   D5 F#5
And I go faster and faster and faster and faster for love
         Bm        A            E        E5 D5   D5 F#5
I can't live in a fairytale of lies


[Interlude]

Bm F#m D F#m


[Verse 2]

       Bm           A            E
I can feel that you mesmerize my heart
          Bm          A        E
I feel so free, I'm alive, I'm breaking out
             Bm             A                E
I won't give in, 'cause I'm proud of all my scars
         Bm              A                E        D5 F#5
And I can see I've been wasting too much time


[Pre-Chorus]

      Bm                     A                                E
I go faster and faster and faster and faster and faster and faster and faster


[Chorus]


N.C.        Bm        A             E       E5 D5   D5 F#5
And I can't live in a fairytale of lies
            Bm            A                   E       E5 D5   D5 F#5
And I can't hide from the feeling 'cause it's right
         Bm           A                              E        E5 D5   D5 F#5
And I go faster and faster and faster and faster for love
        Bm        A             E        E5 D5   D5 F#5
I can't live in a fairytale of lies


[Solo]


G x2    Em x2    D x2    F#m x2    G x1    A x1    F#m x1    Bm x2


                               G
e|----------------------------|----------------------------|
B|----------------------------|----------------------------|
G|----------------------------|----------------------------|
D|-----------------9--11-11---|-(11)---------------12-12---|
A|-----------7s-9-------------|----------------------------|
D|----------------------------|----------------------------|

  G
e|----------------------------------------------------------------------------|
B|----------------------------------------------------------------------------|
G|-----------------------------------------------------------------11---------|
D|--12b---------------12----------------11-------11h12p11-9-------------------|
A|----------------------------------------------------------------------------|
D|----------------------------------------------------------------------------|

  Em
e|--------------------------------------|
B|--------------------------------------|
G|-(11)-----------------------12----12--|
D|--------------------------------------|
A|--------------------------------------|
D|--------------------------------------|

  Em
e|-----------------------------------------------------------------|
B|-----------------------------------------------------------------|
G|--12b------------12------------11-------11h12p11-9------9--------|
D|-----------------------------------------------------------------|
A|-----------------------------------------------------------------|
D|-----------------------------------------------------------------|

  D                                    D
e|------------------------------------|------------------------------------------|
B|------------------------------------|------------------------------------------|
G|-(9)--------------------------------|--11b--------11---------------------------|
D|-----------------12----12-----12----|-------------------12----12----14----11---|
A|------------------------------------|------------------------------------------|
D|------------------------------------|------------------------------------------|

  F#m                                           F#m
e|--------------------------------------------|----------------------------------------------------|
B|--------------------------------------------|----------------------------------------------------|
G|--------------------------------------------|----------------------------------------------------|
D|-(11)---------------------------------------|-----------------------------------------9--11------|
A|----------------12-12-12-------------9-9----|--9--------10-------12----12----12-10-9-------------|
D|--------------------------------------------|----------------------------------------------------|

  G
e|--------------------------------------------------|
B|--------------------------------------------------|
G|--------------------------11----------------14----|
D|--11b------------11-12-14-------14-12-11----------|
A|--------------------------------------------------|
D|--------------------------------------------------|

  G
e|----------------------------------------------------------------|
B|--------------------------14----------------15------------------|
G|--14b------------11-12-14----------11-12-14----------11-12-14---|
D|----------------------------------------------------------------|
A|----------------------------------------------------------------|
D|----------------------------------------------------------------|

  A
e|--14--------15--12--------10----10-------9--|
B|-----------------------------14----14-12----|
G|--------------------------------------------|
D|--------------------------------------------|
A|--------------------------------------------|
D|--------------------------------------------|

  F#m                                                    Bm                  Bm
e|--------------------------------14-12-10-12-------17--|--17b-17b-17b-17b--|--17b-----------------||
B|--11-12-11----------------------------------14-15-----|-------------------|----------------------||
G|-----------12-11-12-11--------------------------------|-------------------|----------------------||
D|------------------------------------------------------|-------------------|----------------------||
A|------------------------------------------------------|-------------------|----------------------||
D|------------------------------------------------------|-------------------|----------------------||


[Chorus]

N.C.
And I can't live in a fairytale of lies
            Bm            A                  E        E5 D5   D5 F#5
And I can't hide from the feeling cause it's right
         Bm           A                              E         E5 D5   D5 F#5
And I go faster and faster and faster and faster for love
            Bm        A              E          E5 D5   D5 F#5
And I can't live in a fairytale of lies


[Outro]

Bm F#m D F#m x2

(a fairytale of lies)

Bm


******************************

| (n)  tie note over bar line
|  h   hammer on
|  p   pull off
|  b   bend
|  s   slide
|  ~   vibrato

******************************
            

* All the chords provided on here are the property of the respective artist, authors and labels, they are intended strictly for educational purposes,read,view and private study. All the contents are extracted from the internet and we are not getting any responsibility for the content.