Fight Or Fall


Transposer


             Metadata that couldn't be added: Standard tuning, intermediate difficulty, Capo 2, key of E

Bm7  = 224212
Bm7* = 224215
D    = 200232
Em7  = 020030

Capo 2 (chords and tablature are relative to the capo position)

[Intro]
                   D                                 Em7
e|----------------|2---------------|----------------|0---------------|----------------|
B|----------------|3---------------|----------------|3---------------|----------------|
G|----------------|2---------------|----------------|0---------------|----------------|
D|----------------|0---------------|----------------|0---------------|----------------|
A|--------2-0-2---|0---------------|--------2-0-2---|2---------------|--------2-0-2---|
E|----------------|2---------------|----------------|0---------------|----------------|
  1   2   3 & 4    1   2   3   4    1   2   3 & 4    1   2   3   4    1   2   3 & 4

Em  F#m  G  Bm  D  Dsus4  D

[Verse 1]
D                F#m    Em7                 Bm      F#m
Brothers, here I stand--spread my wings and take command
D                  F#m   Em7          Bm     F#m
God, he'd just the plan,    the boy become a man

[Chorus]
G                Bm7     F#m              Em7
  After all this time, I tell myself that I'm
G                  Bm7
  Not just wasting time
F#m                    Em7
  Oh, you know I'm not that way inclined

[Interlude]
          D                                 Em7                               Em    F#m
e|--------2-------|----------------|--------0-------|----------------|--------0-----2-|
B|--------3-------|--3-------------|--------3-------|--3-------------|--------0-----2-|
G|--------2-------|------2---------|--------0-------|----2---0-------|--------0-----2-|
D|--------0-------|----------------|--------0-------|----------------|--------2-----4-|
A|2-0-2---0-------|----------------|2-0-2---2-------|----------------|2-0-2---2-----4-|
E|--------2-------|----------------|--------0-------|----------------|--------0-----2-|
  1 & 2   3   4    1 & 2 & 3   4    1 & 2   3   4    1   2   3   4    1 & 2   3   4 &

G  A  D  Dsus4  D

[Verse 2]
D               F#m    Em7                Bm      F#m
Brothers if you hear, raise your flag and make it clear
D                  F#m        Em7       Bm     F#m
  There is more to fear if we wait for another year

[Chorus]
G                Bm7
  After all this time
  F#m                                G
I tell-a myself (I tell-a myself)
                            tell-a myself
G
(tell-a myself)
          tell-a myself
G
(tell-a myself)
          tell-a myself

     F#m  Bm7                      G
That I'm      just passing through time

[Interlude]
          D                                 Em7                               Em    F#m
e|--------2-------|----------------|--------0-------|----------------|--------0-----2-|
B|--------3-------|--3-------------|--------3-------|--3-------------|--------0-----2-|
G|--------2-------|----2---2-------|--------0-------|----2---0-------|--------0-----2-|
D|--------0-------|----------------|--------0-------|----------------|--------2-----4-|
A|2-0-2---0-------|----------------|2-0-2---2-------|----------------|2-0-2---2-----4-|
E|--------2-------|----------------|--------0-------|----------------|--------0-----2-|
  1 & 2   3   4    1 & 2 & 3   4    1 & 2   3   4    1   2   3   4    1 & 2   3   4 &

G  Bm  D Dsus4 D

[Instrumental]
D  A  G  Bm7
D  A  G  Bm7  F#m

[Chorus]
G                Bm7     F#m              G
  After all this time, I tell myself that I'm
Bm7                F#m    Em7                    Bm7        F#m
  Not just wasting time.    Oh, you know I'm not that way inclined

[Outro]
Bm7*  A  Bm7*  A  Bm7*  A  Bm7*  A

D                      F#m
Brothers fight or fall
     Em7             Bm      F#m
It's man for man and one for all
D                F#m     Em7                            Bm   F#m
  No more can we crawl.     Brothers, Brothers head the call
G                Bm7     F#m              G
  After all this time, I tell myself that I'm
Bm7                F#m    Em7                    Bm7        F#m
  Not just wasting time.    Oh, you know I'm not that way inclined

Bm7*            A
Brother Brother

Bm7*             A
Brother Brother

Bm7*                    A
Brother Brother
(Brother fight or fall)

Bm7*                                 A
Brother Brother
    It's man for man and one for all

Bm7*                            A
Brother Brother  (The other big brother)

Bm7*                              A
Brother Brother  (What you want?)

Bm7*                                           A
Brother Brother  (Brothers, we gotta fight for one another!)

Bm7*             A
Brother Brother
            

* All the chords provided on here are the property of the respective artist, authors and labels, they are intended strictly for educational purposes,read,view and private study. All the contents are extracted from the internet and we are not getting any responsibility for the content.