Flores Y Sandias


Transposer


             (a capella sobre los acordes escritos)
                  Dm
No dejes que te detengan
                     C
ni lo vientos ni los mares
                  Bb
ni la risa de los otros
                     A7
no te pierdas en los bares.

e-------4--5-----------------4--5-------------
B--4--5------4--5--0--1--4--5------4---5--1---
G---------------------------------------------

E7                 Am
    Ese día me di cuenta
                      Bb
que la cosa no es tan fácil
                     Dm
por mas que me lo proponga
                    E7
no todo logro, nada llega.

Y sentí un gran enojo
por ese terrible engaño
que me han hecho creer
con el correr de estos años.

        Am
Pórtate bien, bonita y trabajá
                              C
que vas a ver que mañana llegará
                        Bb
mirá adelante y con alegría
                        Dm
pensá en flores y en sandias.
A7                   Dm
   No dejes que te detengan
                       C
ni los vientos ni los mares
                  Bb
ni la risa de los otros
                     A       A7
no te pierdas en los bares.

e---------9---10---------------------------9---10-------------
B--9---10--------9---10----5---6----9---10--------9---10---6-- Repite
G-------------------------------------------------------------

Y pensé con alegría
que mis deseos cumpliría
y aquí estoy en mi sillón
con mi soda en un sifón.  sshhhhhh!!!
Y pensando tantas horas
dormidita me he quedado
y fue a través de un sueño
que las cosas se me han dado.

Pórtate bien, bonita y trabajá
que vas a ver que mañana llegará
y si no llega no te enojes
tené paciencia por favor.
Que mientras mas pasa el tiempo
mas grande el premio y tu valor
no dejes que te detengan
te lo pido por favor.


1-----------14---15-------------------------14---15------------
2---14---15----------14--15--10--11--14--15---------14--15--11-
3--------------------------------------------------------------
            

* All the chords provided on here are the property of the respective artist, authors and labels, they are intended strictly for educational purposes,read,view and private study. All the contents are extracted from the internet and we are not getting any responsibility for the content.