Freaks Unite


Transposer


             -------------------------------------------------------------------------------
                            Freaks Unite - Witchrider
-------------------------------------------------------------------------------
Tabbed by: lonelybusdriver
E-mail:

Tuning: Standard

-------------------------------------------------------------------------------

Intro:
e|---------------------------------------------------------------------------|
B|---------------------------------------------------------------------------|
G|-5-----5-----5---5-----5-----5---------------------------------------------|
D|---------------------------------8-----8-----8---8-----8-----8-------------|
A|---3-3---3-3---3---3-3---3-3---3-------------------------------------------|
E|-----------------------------------4-4---4-4---4---4-4---4-4---4-----------|

  Cm                               G#
e|---------------------------------------------------------------------------|
B|---------------------------------------------------------------------------|
G|-8-8-8-8-8-8-8-8-8-8-8-8-7-7-7-7-5-5-5-5-5-5-5-5-5-5-5-5-7-7-7-7-----------|
D|---------------------------------------------------------------------------|
A|-6-6-6-6-6-6-6-6-6-6-6-6-5-5-5-5-3-3-3-3-3-3-3-3-3-3-3-3-5-5-5-5-----------|
E|---------------------------------------------------------------------------| 2x
  Cm                                               G#
e|-------------------------------------------------------------------------------------------------|
B|-------------------------------------------------------------------------------------------------|
G|-12-12-12-12-12-12-12-12-15-15-15-15-15-15-15-15-17-17-17-17-17-17-17-17-19-19-19-19-19-19-19-19-|
D|-------------------------------------------------------------------------------------------------|
A|-10-10-10-10-10-10-10-10-13-13-13-13-13-13-13-13-------------------------------------------------|
E|-------------------------------------------------16-16-16-16-16-16-16-16-16-16-16-16-16-16-16-16-| 2x

      Cm
Let's climb a mountain in your head
      G#
      While we sleepwalk in our beds
      Cm                           G#
  Control is lost when freaks unite

      Cm
   So be my freak and stay the night
      G#
   my soul is black and yours is bright
      Cm                        G#
Let's build a city in our heads

Interlude:
   Cm                                       G#
e|---------------------------------------------------------------------------|
B|---------------------------------------------------------------------------|
G|-12-12-12-10-10-10-8-8-8-10-10-10-8-8-7-7-8-8-8-7-7-7-5-5-5-7-7-7-3-3-5-5--|
D|---------------------------------------------------------------------------|
A|-10-10-10-8--8--8--6-6-6-8--8--8--6-6-5-5-6-6-6-5-5-5-3-3-3-5-5-5-1-1-3-3--|
E|---------------------------------------------------------------------------|

      Cm
Let's build a city in our dreams
      G#
Where I'll be king and you'll be queen
      Cm                           G#
Where broken angels still got wings

      Cm
Let's hold a mirror in our hearts
      G#
  to see all things so torn apart
      Cm                          G#
      would you wanna be the cure
 
Interlude

Then 4x Cm (quietly)

      Cm
Let's draw a sun in our minds
      G#
that shines so bright it always blinds
      Cm                            G#
      shadows die when freaks unite

      Cm
So be my freak and stay the night
      G#
  my soul is black and yours is bright
      Cm                        G#
let's build a city in our heads

      Cm
      It's a dream, it's a dream
      G#
      It's a dream, it's a dream
      Cm                        G#
  For all I know I'm never sure

      Cm
   So be my freak, be my freak
      G#
      be my freak, be my freak
      Cm                       G#
  For all I know I'm never sure


Outro: played 4 times
   C5              A#5             G#5             F5
e|---------------------------------------------------------------------------|
B|---------------------------------------------------------------------------|
G|---------------------------------------------------------------------------|
D|-5-5-5-5-5-5-5-5-3-3-3-3-3-3-3-3-------------------------------------------|
A|-3-3-3-3-3-3-3-3-1-1-1-1-1-1-1-1-6-6-6-6-6-6-6-6-3-3-3-3-3-3-3-3-----------|
E|---------------------------------4-4-4-4-4-4-4-4-1-1-1-1-1-1-1-1-----------|

Then another 4 times just C5

Fin



************************************

| /   slide up
| \   slide down
| h   hammer-on
| p   pull-off
| ~   vibrato
| +   harmonic
| x   Mute note
| b   Bend
| pb  Pre-bend
| br  Bend release
| pbr Pre-bend release
| brb Bend release bend

************************************
            

* All the chords provided on here are the property of the respective artist, authors and labels, they are intended strictly for educational purposes,read,view and private study. All the contents are extracted from the internet and we are not getting any responsibility for the content.