Giroscopio


Transposer


             Intro : D D7 G C Em

D                    G      Bm                  D
Colores vienen y se van  primeros encuentros misterios eternos
D                    G      Bm                  D
Te desvaneces con el Sol pensar que te escondes es parte del juego


Pre-coro
D                  G                 Bm              
El lunes buscas el martes mientes el jueves te encuentro
     D
Y empieza de nuevo

CORO
   D           G      C               Em
Giramos alrededor, midiendo nuestro temor
   D           G      C               Em
Giramos alrederor, y nunca tocamos el Sol

D                     G       Bm                  D
Los años vienen y se van los mismos desnudos de cuerpos cansados   
Nos permitimos olvidar que el mar del deseo se esconde en un velo

Pre-coro

El lunes buscas, el martes mientes,el jueves te encuentro
Y empieza de nuevo

CORO 2
Giramos alrededor, midiendo nuestro temor
Giramos alrededor, y nunca tocamos el Sol      
Giramos alrededor un giroscopio de tentación 

SOLO:
E----------------------------------------------------------------------------------
B--------------17-15---------------------------------------------------------------
G-------14-19--------16-16-14-12-16-14-12-17-16-12-17-16----7-7-9-14-12------------
D---16-----------------------------------------------------------------------------
A----------------------------------------------------------------------------------
E----------------------------------------------------------------------------------


E----------------------------------------------------------------------------------
B-------------17-15----------------------------------------------------------------
G------14-19----------16-16-14-12-16-14-12-17-16--12-9-7-9-14----------------------
D---16-----------------------------------------------------------------------------
A----------------------------------------------------------------------------------
E----------------------------------------------------------------------------------
                      G                    Bm                  D

D                      G                    Bm                  D
Nos confundimos al hablar sin escuchar las voces que gritan detras 
del suspiro
D                      G                    Bm                        
Nos desgastamos sin saber que es temporal si cruzas el cielo 
       D
En estrellas fugaces 


D                  G                 Bm              
El lunes buscas el martes mientes el jueves te encuentro
     D
Y empieza de nuevo


   D           G      C               Em
Giramos alrededor, midiendo nuestro temor
   D           G      C               Em
Giramos alrederor, y nunca tocamos el Sol


 ESPERO QUE SI ESTÉ BIEN Y CUALQUIER DUDA MANDENME UN MAIL...
            

* All the chords provided on here are the property of the respective artist, authors and labels, they are intended strictly for educational purposes,read,view and private study. All the contents are extracted from the internet and we are not getting any responsibility for the content.