Glue


Transposer


             [Chords]
D :09x11xx
D*:07x9xx
G*:54x6xx
G :55x7xx
A :77xxxx
G :55xxxx

    D*       D
She comes to me
    D*        G*               G
Whenever I am locked inside my room
G*            G                D
Buried in the tune that I call love

    D*       D       D*             G*
She sings to me, the words I cannot hear
    G         G*          G                 A
But then, the melody's so clear it makes me cry

A              G
Her love is so beautiful
A              G                    D
Her love is so real, it smells like glue

Riff (Played over D chord):

e|------------------------------------------------|
B|------------------------------------------------|
G|------------------------------------------------|
D|-12-10----------------------12-10---------------|  x2
A|--------12-10-10-12-10-5----------12-10-10-12-10|
E|------------------------------------------------|

      D*      D     D*               G*              G
She's leaving me to find a place she never will call home
        G*             G
I stand shaking like a stone
          D
And smile inside

      D*      D     D*              G*              G
She's calling me to come to her and curl inside her womb
       G*         G
I hear lies, acid too
            A                   G
But I won't die, the pain is so beautiful
A              G                    D
The urge is so real, it smells like glue

A          G
And I will scream, she hears me
A           G
I will tell myself she loves me
A                    G
And all the lies and fears
                      D
Will stick to me like glue

e|------------------------------------------------|
B|------------------------------------------------|
G|------------------------------------------------|
D|-12-10----------------------12-10---------------|  x2
A|--------12-10-10-12-10-5----------12-10-10-12-10|
E|------------------------------------------------|

A          G
And I will scream, she hears me
A           G
I will tell myself she loves me
A                    G
And all the lies and fears
                      D
Will stick to me like glue

e|------------------------------------------------|
B|------------------------------------------------|
G|------------------------------------------------|
D|-12-10----------------------12-10---------------|  x2
A|--------12-10-10-12-10-5----------12-10-10-12-10|
E|------------------------------------------------|

D
until end
            

* All the chords provided on here are the property of the respective artist, authors and labels, they are intended strictly for educational purposes,read,view and private study. All the contents are extracted from the internet and we are not getting any responsibility for the content.