Hand Grenade


Transposer


             I've seen a few tabs and all of them seem to be off. Here is what I'm hearing.

Tuning: Standard (EADGBE)
Capo: 5th fret
Count: 4/4



Chords Used (Relative to Standard tuning):

     F     C     G7    Am    G     Em
E----0-----0-----0-----0-----3-----0-------|
B----1-----1-----1-----1-----0-----0-------|
G----2-----0-----0-----2-----0-----0-------|
D----3-----2-----0-----2-----0-----2-------|
A----X-----3-----2-----0-----2-----2-------|
E----X-----X-----3-----0-----3-----0-------|



On the Intro and verses use these strumming layouts for F, C and G7 (Listen to the 
song and you'll hear it): 

          F             C             G7     
E---------0-------------0-------------0----------|
B---------1-------------1-------------1----------|
G---------0h2-----------0-------------0----------|
D---------3-------------0h2-----------0----------|
A-------0-X-----------3-3-------------2----------|
E---------X-------------X-----------3-3----------|


Intro and verses are played like this:

F x1
C x1
F x1
C (half)
G7 (half)
F x1
C (half)
G7 (half)
Am x2


Verse 1:
F            C
   Oh, to be young
F                  C       G7
   It sounds like so much fun
F            C        G7        Am
Oh, the long wait For things to happen
F          C
      Expectancy
F             C       G7
And you, just waiting on me

F         C                  Am             G
I wanna know what's in your plan...


Chorus:

Am
If you're an ocean then
F
I wanna jump right in
      C
If you're a hand grenade then
G
I'll pull the pin
Am
I'll wait right here all night
F
For you to let me in
         C
And I'll run, run, run, run
G
Run right back to you I'll run


Verse 2:

F                C
   Life's moving faster now
F               C          G7
   I'm older here but younger somehow
F               C           G7        Am
   Head full of fear and it makes me break
F             C
Please let me find you
F             C         G7
Please let me know just what you want
F             C            Am                     G
Please let me see what you need me to be


[Chorus]


Bridge:

Em                       Am
Oh if you could see in me
          F          
You might be kinda scared
Em                     Am
 Oh if I could just believe
               F   G
You'll take me anywhere


[Chorus]

Outro same as Verse
            

* All the chords provided on here are the property of the respective artist, authors and labels, they are intended strictly for educational purposes,read,view and private study. All the contents are extracted from the internet and we are not getting any responsibility for the content.