Hard Road


Transposer


             Saw this elsewhere, thought I might share it.

v: downstroke
^: upstroke


Chords used:

      D7  G   Em  D   Bm  C
e-----x---3---0---2---2---0----|
B-----3---0---0---3---3---1----|
G-----5---0---0---2---4---0----|
D-----4---0---2---0---4---2----|
A-----5---2---2---x---2---3----|
E-----x---3---0---x---x---x----|


Intro/Verse/Solo/Outro:

    v  ^  v  ^  v  ^  v  ^  v  ^  v  ^  v  ^  v  ^
e------x-----x-----x--x--x-----x-----x-----x--x--x--|
B------0-----0-----0--0--1-----0-----0-----0--0--1--|
G------0-----0-----0--0--0-----0-----0-----0--0--0--|
D------0-----0-----0--0--2-----0-----0-----0--0--2--|
A---2-----2-----2-----2--3--2-----2-----2-----2--3--|
E---3-----3-----3-----------3-----3-----3-----------|


Chorus:

    v  ^  v  ^  v  ^  v  ^  v  ^  v  ^  v  ^  v  ^
e------x-----x-----x--x--x-----x-----x-----x--x--x--|
B------3-----3-----3--3--3-----3-----3-----3--3--3--|
G------5-----5-----5--5--5-----5-----5-----5--5--5--|
D---4--4--4--4-----4--4--4--4--4--4--4-----4--4--4--|
A---5--5--5--5-----5--5--5--5--5--5--5-----5--5--5--|
E---x--x--x--x-----x--x--x--x--x--x--x-----x--x--x--|


Bridge:

Em D Bm D C
G D Em Bm D7 (same strumming as chorus)
            

* All the chords provided on here are the property of the respective artist, authors and labels, they are intended strictly for educational purposes,read,view and private study. All the contents are extracted from the internet and we are not getting any responsibility for the content.